Oops, an error
Loading. Please wait.

La Barra De Este Hotel tab

22 views 1 this week
no commentswrite comment
1 2 3 4 5
3 more votes to show rating
add to favorites
×
Save as Personal and add changes to this tab that will be seen only by you. Learn more ›
×
You can save this tab as Personal to edit and correct it or add notes. All changes will be seen only by you. Learn more »
launch autoscroll
font size
0
reset
how to read this tab
guitar tuner
edit
Autoscroll
slow
fast
+/-
esc
set tempo
stop
Hola gente, aquí os dejo una canción bastante guapa de ECDL que he visto que no
estaba por aquí, creo que está exacta al disco, pero se aceptan sugerencias y
todo eso:


Intro: E - B
       E

   E                    E
Colgantes en el cuello, botas de tacón
   E                   E           C#m
Brillantes en el cuero bajo el cinturón
     F#         A            E
Pisa bien, pisa bien, ve por él


   E                       E
Perfumes, un gran coche, regalos en tu honor
E                      E         C#m
Préstale tu encanto, regálale tu amor
     F#       A           E
Muévete, muévete y te irá bien


G#m            A   G#m                C#m
Pero pronto acabará y entre oro sonreirás
G#m                 A                   E
Hasta que descubras que el futuro no vendrá
                     B
A la barra de este hotel
                           E
Porque esta vez se fue con él


   E                     E
Lo luces en la noche, lo mueves al andar
   E                E           C#m
Quizás el nuevo día no te sonreirá
       F#         A        E
Quizás sí, quizás no, se verá


G#m            A   G#m                C#m
Pero pronto acabará y entre oro sonreirás
G#m                 A                   E
Hasta que descubras que el futuro no vendrá
                     B
A la barra de este hotel


Puente:

    E
e |----------------------------|---------------------|
B |----------------------------|---------------------|
G |--9-9--11-11-/-13-13-13-13--|--9-9--11-\-9-9-9-9--|
D |--x-x---x--x-/--x--x--x--x--|--x-x---x-\-x-x-x-x--|
A |--7-7---9--9-/-11-11-11-11--|--7-7---9-\-7-7-7-7--|
E |----------------------------|---------------------|

    B
e |----------------------------|-------------------------------|
B |----------------------------|-------------------------------|
G |--9-9--11-11-/-13-13-13-13--|-14-14-14-14-14-x-13-13-13-13--|
D |--x-x---x--x-/--x--x--x--x--|--x--x--x--x--x-x--x--x--x--x--|
A |--7-7---9--9-/-11-11-11-11--|-12-12-12-12-12-x-11-11-11-11--|
E |----------------------------|-------------------------------|

          [ Tocar 2 veces las dos partes ]


A              E    A              C#m
Pero pronto acabará y entre oro sonreirás
G#m                 A                   E
Hasta que descubras que el futuro no vendrá
                     B
A la barra de este hotel


A              E    A              C#m
Pero pronto acabará y entre oro sonreirás
G#m                 A                   E
Hasta que descubras que el futuro no vendrá
                     B
A la barra de este hotel
                           E
Porque esta vez se fue con él


Puente: 3 veces, la última acabar con E

    E                  A
e |------------------------------|
B |------------------------------|
G |------------------------------|
D |------------------------------|
A |---------------------2-2------|
E |--0-0-x-0-0----0-2-4-----4-2--|

            
            
Suggest correction
Creating personal tab
Creating personal tab
You can edit any tab online and save it as your Personal.

You can edit, replace or remove any tab part or add personal notes – all changes will be seen only by you.

Personal tabs can be accessed anytime from any device, even offline.
Learn more »
Give kudos to tab author, rate the tab!
1 2 3 4 5
comments
print report bad tab
guest
Wanna post a correction for this tab? Suggest correction