Oops, an error
Loading. Please wait.

Loco tab

88 views 1 this week
no commentswrite comment
1 2 3 4 5
3 more votes to show rating
add to favorites
×
Save as Personal and add changes to this tab that will be seen only by you. Learn more ›
×
You can save this tab as Personal to edit and correct it or add notes. All changes will be seen only by you. Learn more »
launch autoscroll
font size
0
reset
how to read this tab
guitar tuner
edit
Autoscroll
slow
fast
+/-
esc
set tempo
stop
OLA QUE TAL A TODOS MI NOMBRE ES OSCAR MARIN VARGAS DE NEIVA(HUILA),
DE COLOMBIA AQUI LES TRAIGO LA TABLATURA DE ESTA CANCION,
NO ENTIENDO PORQUE NADIE LA HABIA BAJADO SI ES RE FACIL
AQUI LES VA

VERSO
   F#5            D#5         A#5        B5    C#5
D-----11-11---11-----8-8---8----------------------------D
A--9-9-----9-9----6-6---6-6------8-8---8----9-9---11-11-A
E-----------------------------6-6---6-6--7-7---9-9------E

esto se hace por todo el verso

PRE-CORO
   B5     A#5    C#5   F#5
G--4-(X12)3-(X12)6-(X12--------G
D--4------3------6-----4-(X12)-D
A--2------1------4-----4-------A
E----------------------2-------E

   B5     A#5    G#5     D5          E5
G--4-(X12)3-(X12)--------7-7---7-7---9-9----9-9------G
D--4------3------6-(X12)----7-7---7-7---9-9-----9-9--D
A--2------1------6-----------------------------------A
E----------------4-----------------------------------E

CORO
  F#5  C#5 D#5 B5 F#5 C#5 D#5 G#5 C#5
G------6---8---4-------6---8-------6--G
D--4---6---8---4---4---6---8---6---6--D
A--4---4---6---2---4---4---6---6---4--A
E--2---------------2-----------4------E

BRIDGE
   D5   E5    A5
G--7-(X8)9-(X8)-----------------------------------G
D--7-----9-----7-AQUI DEBES JUGAR CON ESTE ACORDE-D
A--5-----7-----7----------------------------------A
E--------------5----------------------------------E

  D5    E5    F#5                                      F#5
E----------------------------------------------9-9-9-9------E
B-----------------------------------11-11-11-11-------------B
G--7-(X8)9-(X8)-------------11-11-11-------------------11//-G
D--7-----9----------11-11-11---------------------------11//-D
A--5-----7-----9-9-9-----------------------------------9//--A
E-----------------------------------------------------------E


ESTA ES TODA LA CANCION SOLO ES CUESTION DE ESCUCHAR LA CANCION
Y ACOMODARLA A SU GUSTOALGUNA DUDA O SUGERENCIA:
MACHITO_8905@
APROVECHEN ESTA ROLA QUE ESTA BUENA BYE

            
            
Suggest correction
Creating personal tab
Creating personal tab
You can edit any tab online and save it as your Personal.

You can edit, replace or remove any tab part or add personal notes – all changes will be seen only by you.

Personal tabs can be accessed anytime from any device, even offline.
Learn more »
Give kudos to tab author, rate the tab!
1 2 3 4 5
comments
print report bad tab
guest
Wanna post a correction for this tab? Suggest correction