Oops, an error
Loading. Please wait.

La Pelotona tab

version 3
version 3

Whole song

107 views 3 this week
no commentswrite comment
1 2 3 4 5
3 more votes to show rating
add to favorites
×
Save as Personal and add changes to this tab that will be seen only by you. Learn more ›
×
You can save this tab as Personal to edit and correct it or add notes. All changes will be seen only by you. Learn more »
launch autoscroll
font size
0
reset
how to read this tab
guitar tuner
edit
Autoscroll
slow
fast
+/-
esc
set tempo
stop
que tal bros!!! esta es mi segunda colaboracion (se q ya hay
otras de esta cancion) les traigo esta rola del cartel de santa
q la neta esta bien chida, se las dejo en tablatura "completa"
para quines como yo no sabemos muy bien los acordes.
No esta muy dificil, se las recomiendo
Espero les agrade!!!!

los acordes q se utilizan desde el verso son:
 em y b7(con variacion)

Intro

 (1)E--------------------------------------
 (2)B--------0---------------0-------1-0---
 (3)G------4---------0-----2-------2------- ( x2 )
 (4)D--4/5-----5---2---2/4-------1---------
 (5)A------------3-------------2-----------
 (6)E--------------------------------------

 Verso

 Viajo en silencio y no expreso?????
E--------0-----------------------------
B----------0------0-------0-------1-0--
G------0--------0-------2-------2------
D-------------2-----0/1-------1-------- ( x7)
A?0/2-----------------------2----------
E--------------------------------------

 Precoro

 Eres lo mejor q en (al final del primer tiempo)
E--------0------------------------------------
B----------0------0-------0-------3-1- 0/1/0--
G------0--------0-------2-------2------------- ( x2 )
D-------------2-----0/1-------1---------------
A?0/2-----------------------2-----------------
E---------------------------------------------

 La brisa de la noche me recuerda lo distante
E--------0-----------------------------
B----------0------0-------0-------1-0--
G------0--------0-------2-------2------
D-------------2-----0/1-------1--------
A?0/2-----------------------2----------
E--------------------------------------


Coro
E--0-0----------------------------------7-7---------------------
B--0-0-----------1---1---0--------------0-0----------1---1---0--
G--0-0---------2---2---2----------------0-0--------2---2---2----
D--2-2-------1-----------------------------------1--------------
A--2-2-----2----------------------------7-7----2----------------
E--0-0----------------------------------------------------------
que se encuentran tus            y yo sigo aquí???y yo sigo aquí
    labios


 o u o u o u ooh(el primero va sin sonido)
 (en el segundo entra la música muy suave y en aumento)
E------0---0---0------------------
B------0---0---0---------1-0-1----
G------0---0---0-------2-------2--   ( x4)
D----2---2---2---2---1------------
A--2---------------2--------------
E---------------------------------
  o u o u o u o u ooh


 cuando estoy contigo cada día??..
E--------0-----------------------------
B----------0------0-------0-------1-0--
G------0--------0-------2-------2------
D-------------2-----0/1-------1-------- ( x5)
A?0/2-----------------------2----------
E--------------------------------------

 Con tal de estar contigo juro??.
E--------0------------------------------------
B----------0------0-------0-------3-1- 0/1/0--
G------0--------0-------2-------2------------- ( x2 )
D-------------2-----0/1-------1---------------
A?0/2-----------------------2-----------------
E---------------------------------------------

 El viento me repite???
E--------0-----------------------------
B----------0------0-------0-------1-0--
G------0--------0-------2-------2------
D-------------2-----0/1-------1--------
A?0/2-----------------------2----------
E--------------------------------------

 Coro
E--0-0---------------------------------7-7---------------------
B--0-0-----------1---1---0-------------0-0----------1---1---0--
G--0-0---------2---2---2---------------0-0--------2---2---2----
D--2-2-------1----------------------------------1--------------
A--2-2-----2---------------------------7-7----2----------------
E--0-0---------------------------------------------------------
 que se encuentran tus           y yo sigo aquí???y yo sigo aquí
    labios


E------0---0---0------------------
B------0---0---0---------1-0-1----
G------0---0---0-------2-------2--   ( x2)
D----2---2---2---2---1------------
A--2---------------2--------------
E---------------------------------
E------0---0---0------------------
B------0---0---0---------1-0-1----
G------0---0---0-------2-------2--   ( x3)
D----2---2---2---2---1------------
A--2---------------2--------------
E---------------------------------
  o u o u o u o u ooh


E------0---0---0------------------
B------0---0---0---------1-0-3----
G------0---0---0-------2---------
D----2---2---2---2---1------------
A--2---------------2--------------
E---------------------------------
  o u o u o u o u ooh


E----0-0---------------------------------7-7--------------------
B----0-0-----------1---1---0-------------0-0----------1---1---0-
G----0-0---------2---2---2---------------0-0--------2---2---2---
D----2-2-------1----------------------------------1-------------
A-0--2-2-----2----------------------0----7-7----2---------------
E----0-0--------------------------------------------------------


  Final
E----0-0---------------------------------2---0---2-----2---0----
B----0-0-----------1---1---0---------0-4-----------4------------
G----0-0---------2---2---2---------0----------------------------
D----2-2-------1------------------------------------------------
A-0--2-2-----2-------------------2------------------------------
E----0-0-------------------------0------------------------------


Dedicada a AGLG la niña mas hermosa d este mundo
a la q le debo mucho
TQM mi niña bonita

Gracias a las personas q m han felicitado por msn se les agradece

            
            
Suggest correction
Creating personal tab
Creating personal tab
You can edit any tab online and save it as your Personal.

You can edit, replace or remove any tab part or add personal notes – all changes will be seen only by you.

Personal tabs can be accessed anytime from any device, even offline.
Learn more »
Give kudos to tab author, rate the tab!
1 2 3 4 5
comments
print report bad tab
guest
Wanna post a correction for this tab? Suggest correction