Oops, an error
Loading. Please wait.

Vamos A Hablar tab

35 views 1 this week
no commentswrite comment
1 2 3 4 5
3 more votes to show rating
add to favorites
×
Save as Personal and add changes to this tab that will be seen only by you. Learn more ›
×
You can save this tab as Personal to edit and correct it or add notes. All changes will be seen only by you. Learn more »
launch autoscroll
font size
0
reset
how to read this tab
guitar tuner
edit
Autoscroll
slow
fast
+/-
esc
set tempo
stop
??????????INTRO???????????
e------------------------------------------------------------------
b----8-7-8---8-10-10>12-13-12-10-8---8-10-10>12-13-12-10-10-8------
g--7-------7-----------------------7-------------------------------
d------------------------------------------------------------------
a------------------------------------------------------------------
E------------------------------------------------------------------

e------------------------------------------------------------------
b--8-7-8---8-10>12-10----------------------------------------------
g--------7---------------------------------------------------------
d------------------------------------------------------------------
a------------------------------------------------------------------
E------------------------------------------------------------------

  Se toca dos veces. Y ya empieza la canción.

D                          Bm
TE HE NOTADO AUSENTE, CABISBAJA Y PENSATIVA
       G          Em               A
Y ESO VAMOS A ACLARARLO EL DIA DE HOY
D                         Bm
AL TENERTE CERCA TE HE SENTIDO RARA Y FRIA
    G         Em           A
Y APOCO ME PREGUNTAS COMO ESTOY

 G         A
MIRAME FIJAMENTE
        F#m              Bm
CARA A CARA, FRENTE A FRENTE
         G
Y AHORA MISMO
    Em          A
EMPEZEMOS POR FAVOR

           D                      Bm
VAMOS A HABLAR NO TENGAS MIEDO CORAZON
                            G
SI AUN LO QUIERES NO HAY PROBLEMA
        Em          A
SI YO ESTORBO YO ME VOY

            D                      Bm
PORQUE ES MEJOR DECIR A TIEMPO UN ADIOS
                         G
QUE CONTINUAR CON ESTA ESPERA
     Em           A
ENGAÑANDONOS LOS DOS
                      D
SI LO PREFIERES YO ME VOY

????????INTRO?????????

G         A
MIRAME FIJAMENTE
        F#m              Bm
CARA A CARA, FRENTE A FRENTE
         G
Y AHORA MISMO
    Em          A
EMPEZEMOS POR FAVOR

           D                      Bm
VAMOS A HABLAR NO TENGAS MIEDO CORAZON
                            G
SI AUN LO QUIERES NO HAY PROBLEMA
        Em          A
SI YO ESTORBO YO ME VOY

            D                      Bm
PORQUE ES MEJOR DECIR A TIEMPO UN ADIOS
                         G
QUE CONTINUAR CON ESTA ESPERA
     Em           A
ENGAÑANDONOS LOS DOS
                      D
SI LO PREFIERES YO ME VOY

            
            
Suggest correction
Creating personal tab
Creating personal tab
You can edit any tab online and save it as your Personal.

You can edit, replace or remove any tab part or add personal notes – all changes will be seen only by you.

Personal tabs can be accessed anytime from any device, even offline.
Learn more »
Give kudos to tab author, rate the tab!
1 2 3 4 5
comments
print report bad tab
guest
Wanna post a correction for this tab? Suggest correction