Oops, an error
Loading. Please wait.

El Karaoke De Mi Noviecita tab

16 views 1 this week
no commentswrite comment
1 2 3 4 5
3 more votes to show rating
add to favorites
×
Save as Personal and add changes to this tab that will be seen only by you. Learn more ›
×
You can save this tab as Personal to edit and correct it or add notes. All changes will be seen only by you. Learn more »
launch autoscroll
font size
0
reset
how to read this tab
guitar tuner
edit
Autoscroll
slow
fast
+/-
esc
set tempo
stop
Intro: Bm

e |-2-0-----0--------------------0-----------|
B |-----3-2---3-2------------2-3---3-2-------|
G |---------------4-2h4--2-4-----------4-2---|
A |----------------------------------------2-|
D |------------------------------------------|
E |------------------------------------------|

Em9          F#m            Bm          F#m
El profesor pidió a su alumna que le repita,
Em             F#m     Bm
aquella oscura herejía densa e ignota.
Em9            F#m         Bm            F#m
Voy a hacer un playback de Rey y los de Ricotta,
Em          F#m       Bm
en el Karaoke de mi noviecita.


Y mientras ella el curioso poema recita,
él va falsificando un pasaje aéreo.
Voy a hacer un playback de Soda Estéreo,
en el Karaoke de mi noviecita


G        A       Bm       F#m
En el Karaoke de mi noviecita,
G        A          Bm             F#m
ella me descifra y después se complica.
G       A        Bm         F#m
En el karaoke de mi guachecita,
G               A               Bm
playback de mi vida canción problemita.


El profesor pidió silencio a su favorita,
para tener un solo minuto de vida tranqui.
Voy a hacer un playback de Atahualpa Yupanqui,
en el Karaoke de mi noviecita.

En el Karaoke ...

Solo

e |-/2v-----5v-3-5-/2-----------------------------------5-----|
B |-----5-3-----------5-3-2---3-2---2-3-3/5---2-3-3/5-3---2v~-|
G |-------------------------------4---------4-----------------|
A |-----------------------------------------------------------|
D |-----------------------------------------------------------|
E |-----------------------------------------------------------|
Esa noche me tomé hasta el agua bendita,
mi penúltima curva y para siempre me perdí.
Voy a hacer un playback de Giuseppe Verdi,
en el Karaoke de mi noviecita

En el Karaoke ...

            
            
Suggest correction
Creating personal tab
Creating personal tab
You can edit any tab online and save it as your Personal.

You can edit, replace or remove any tab part or add personal notes – all changes will be seen only by you.

Personal tabs can be accessed anytime from any device, even offline.
Learn more »
Give kudos to tab author, rate the tab!
1 2 3 4 5
comments
print report bad tab
guest
Wanna post a correction for this tab? Suggest correction