Oops, an error
Loading. Please wait.

Lo Malo De Ser Bueno bass

1,391 views 24 this week
no commentswrite comment
1 2 3 4 5
3 more votes to show rating
add to favorites
×
Save as Personal and add changes to this tab that will be seen only by you. Learn more ›
×
You can save this tab as Personal to edit and correct it or add notes. All changes will be seen only by you. Learn more »
launch autoscroll
font size
0
reset
guitar tuner
edit
Autoscroll
slow
fast
+/-
esc
set tempo
stop
Les Traigo La Tab de la cancion
"Lo Malo De Ser Bueno" Espero que les sirva...
La Afinacion que utiliza es la Standard E,A,D,G (MI-LA-RE-SOL)
¡¡¡PRACTIQUE MUCHO!!!


Riff Guitarra y bajo

G|-------------------------------------|
D|-------------------------------------|
A|-----------4--4--------------------4-|
E|-5--5-4--4------0--0-1-2--2-4--4-5---|

Inicio: Riff

La verdad es que no hay una verdad...
G|-------------------------------------|
D|-------------------------------------|
A|-----------4--4--------------------4-|
E|-5--5-4--4------0--0-1-2--2-4--4-5---|

Que barbaridad! Lo barato sale caro...
G|-----------------------|
D|-----------------------|
A|-2h4--2h4--2h4-2h4-----|
E|-----------------------|

Siempre hago lo que quiero, no lo puedo evitar...
G|-------------------------------------|
D|-------------------------------------|
A|-----------4--4--------------------4-|
E|-5--5-4--4------0--0-1-2--2-4--4-5---|

es lo lindo de ser feo...
G|-----------------------|
D|-----------------------|
A|-----------------------|
E|-555555555-444444444---|

Coro-¡Ya esta! ¡Cuanta ambigüedad!...

G|-----------------------------------------|
D|-----------------------------------------|  x2
A|-----------4444-----------------444444444|
E|-5555-4444------0000-1-2222-4444---------|

Busco respuestas y encuentro preguntas...
G|-----------------------|
D|-----------------------|
A|-2h4--2h4--2h4-2h4-----|
E|-----------------------|

Perdón, si mi mente queda en blanco veo todo negro...
G|-------------------------------------|
D|-------------------------------------|
A|-----------4--4--------------------4-|
E|-5--5-4--4------0--0-1-2--2-4--4-5---|

El ocio no me deja tiempo para nada. Y con esa vil cuartada...
G|-----------------------|
D|-----------------------|
A|-----------------------|
E|-555555555-444444444---|

Coro-¡Ya esta! ¡Cuanta ambigüedad!...
G|-----------------------------------------|
D|-----------------------------------------|  x2
A|-----------4444-----------------444444444|
E|-5555-4444------0000-1-2222-4444---------|

Solo:
G|-----------------------------------------|
D|-----------------------------------------|  x2
A|-----------4444-----------------444444444|
E|-5555-4444------0000-1-2222-4444---------|

Mundo cruel...Trae mala suerte ser supersticioso...
G|-----------------------|
D|-----------------------|
A|-2h4--2h4--2h4-2h4-----|
E|-----------------------|

¿Cuantas veces dije no queriendo decir si?...
G|-------------------------------------|
D|-------------------------------------|
A|-----------4--4--------------------4-|
E|-5--5-4--4------0--0-1-2--2-4--4-5---|

te digo la otra, qué horror...
G|-----------------------|
D|-----------------------|
A|-----------------------|
E|-555555555-444444444---|

Coro Sin Bajo-¡Ya esta! ¡Cuanta ambigüedad!
Esta vida me va a matar.                      (El Bajo no hace nada)
Mi corazón vacío no soporta una ausencia más.

(los puntos quiere decir que deja sonando la cuerda)

Y sé que dijo una vez el nobel de la paz asesinado al caer:
?Es lo malo de ser bueno en este mundo cruel?.

G|--------------------------------------|
D|--------------------------------------|
A|----------4...--------------444444444-|
E|-5...-4...----0...-2222-4444----------|

¡Ya esta! ¡Cuanta ambigüedad!
G|-----------------------------------------|
D|-----------------------------------------|  x2
A|-----------4444-----------------444444444|
E|-5555-4444------0000-1-2222-4444---------|

Es lo malo de ser bueno en este mundo cruel...
Es lo malo de ser bueno en este mundo cruel...

G|----------------------------------------|
D|----------------------------------------|  x2
A|-----------444444444-------------4444444|
E|-5555-4444----------0-1-2222-4444-------|

Solo Guitarra
G|-----------------------------------------|
D|-----------------------------------------|
A|-----------4444-----------------444444444|
E|-5555-4444------0000-1-2222-4444---------|

vuelta final.
G|------------------------------------|
D|------------------------------------|
A|-----------4444-----------------4...|
E|-5555-4444------0000-1-2222-4444----|

            
            
Suggest correction
Creating personal tab
Creating personal tab
You can edit any tab online and save it as your Personal.

You can edit, replace or remove any tab part or add personal notes – all changes will be seen only by you.

Personal tabs can be accessed anytime from any device, even offline.
Learn more »
Give kudos to tab author, rate the tab!
1 2 3 4 5
comments
print report bad tab
guest
Wanna post a correction for this tab? Suggest correction