Oops, an error
Loading. Please wait.

Todos Pasan Por Mi Rancho tab

1,058 views 3 this week
no commentswrite comment
1 2 3 4 5
3 more votes to show rating
add to favorites
×
Save as Personal and add changes to this tab that will be seen only by you. Learn more ›
×
You can save this tab as Personal to edit and correct it or add notes. All changes will be seen only by you. Learn more »
launch autoscroll
font size
0
reset
how to read this tab
guitar tuner
edit
Autoscroll
slow
fast
+/-
esc
set tempo
stop
Esta Tablatura es una Version Simplificada para el Intro y todas las
estrofas.

  Am            Am/G        Am/F#       Am/F
E|---------0------------0-----------0--------------------
B|-------1---1--------1---1-------1---1-------0-------1--
G|-----2------------2-----------2-----------2-------2----
D|-------------------------------------------------------
A|--0----------------------------------------------------
E|---------------3-----------2-----------1-------0-------

Todos pasan por mi rancho                  Y eso que lo tengo limpio
pero nadie se detiene                      bien cuidado y ordenado
siempre algún temor les viene              le he cambiado el decorado
que con nada los engancho.                 y el aroma del incienso.

Y a lo largo y lo ancho                    Pero estoy como al comienzo
de esta historia singular                  que a nadie puedo atraer
nunca me pude explicar                     ya no se qué puedo hacer,
qué misterio se despierta                  un buen sitio es el que brindo.
todos llegan A MI puerta                   todos dicen que esta lindo
pero nadie quiere entrar.                  y no se atreven a meter.

C      E       Am
aaaaay que pena!
         F          Am
ver la indiferencia ajena
      F         Am
ignorando mi tesoro
C     E       Am
aaaay que pena!
          F             E
nadie entiende esta condena
  E               Am
de estar solo...


Cuando estoy desesperado
cierro sin llave la puerta
dejo la ventana abierta
a ver si entra un trasnochado.

Pero nadie se ha asomado
ni por equivocación
ni siquiera un vil ladrón
o una inocente incauta
y esta intriga ya me pauta
quien me echó esta maldición...

C      E       Am
aaaaay que pena!
         F          Am
ver la indiferencia ajena
      F         Am
ignorando mi tesoro
C     E       Am
aaaay que pena!
          F             E
nadie entiende esta condena
  E               Am
de estar solo...

E|--------------8-7--------------------------------------
B|--------10--------10-9-10------------------------------
G|--9-8-9---------------------9-10--7-9--7---------------
D|-----------------------------------------10-9--10-7----
A|-------------------------------------------------------
E|-------------------------------------------------------

E|--8-7--------------------------------------------------
B|------10-9-10-----------------10-----------------------
G|---------------9-10--9--9-8-9-----9-7-----7------------
D|--------------------------------------10----10-9--10-7-
A|-------------------------------------------------------
E|-------------------------------------------------------


    Am                    E
E|--------0----------0----------0-----------0------------)
B|------1---1------1---1------0---0-------0---0----------)
G|----2----------2----------1-----------1----------------) X3
D|-------------------------------------------------------)
A|--0----------0-----------------------------------------)
E|------------------------0-----------0------------------)

  Am            Am/G        Am/F#       Am/F
E|---------0------------0-----------0--------------------
B|-------1---1--------1---1-------1---1-------0-------1--
G|-----2------------2-----------2-----------2-------2----
D|-------------------------------------------------------
A|--0----------------------------------------------------
E|---------------3-----------2-----------1-------0-------

D|-------------------0---2---
A|-----------0---2-----------
E|---------------------------
Am                 E
Unos dicen que me vaya
       E           Am
que me mude a otro lado
      Am          E
y yo sigo acá sentado
        E           Am
porque pienso dar batalla
       Am          E
a esta sarta de canallas.
         Am
Y es que no puedo aceptar
   Am/G           Am/F#
morirme sin descifrar
        Am/F           Am
por qué causa o qué carancho
       Am           E
todos pasan por mi rancho
pero nadie quiere entrar.
C      E       Am
aaaaay que pena
          F          Am
ver la indiferencia ajena
      F         Am
ignorando mi tesoro
C     E       Am
aaaay que pena!
          F             E
nadie entiende esta condena
  E               Am
de estar solo...

E|---------7-8-8--8-7-/10--8-(8)(8)-8-(8)(8)-7-(7)(7)--7--7-
B|--10--10--------------------------------------------------
G|----------------------------------------------------------

E|----------7----7-8-7-8-10--12-(12)(12-12)-13--12-10-12-10-
B|--10-9-10---10--------------------------------------------
G|----------------------------------------------------------

E|--10-8-10H8/7-10H8-7----7----8--7-------------------------
B|---------------------10---10---------10-9-----------------
G|----------------------------------------------------------

E|----------------------------------------------------------)
B|------10---10-----12---12-----13---13---12/13-12-12-12----) X3
G|--9-9----9----9-9----9----9-9----9----9-------------------)

Las notas en parentesis se toca con menos volumen, esto es
porque no contamos con el efecto delay utilizado en la cancion

Alguna Queja, Sugerencia o simplemente comunicar algo

Facebook.: 
Twitter..: Dvrferreiras
Email....: Dioveryflow@
Google+..: Dioveryflow@
Yahoo....: Dioveryflow@
Republica Dominicana.
Diovery Ferreiras

            
            
Suggest correction
Creating personal tab
Creating personal tab
You can edit any tab online and save it as your Personal.

You can edit, replace or remove any tab part or add personal notes – all changes will be seen only by you.

Personal tabs can be accessed anytime from any device, even offline.
Learn more »
Give kudos to tab author, rate the tab!
1 2 3 4 5
comments
print report bad tab
guest
Wanna post a correction for this tab? Suggest correction