Oops, an error
Loading. Please wait.

Sanguinarios Del M1 tab

441 views 3 this week
no commentswrite comment
1 2 3 4 5
3 more votes to show rating
add to favorites
×
Save as Personal and add changes to this tab that will be seen only by you. Learn more ›
×
You can save this tab as Personal to edit and correct it or add notes. All changes will be seen only by you. Learn more »
launch autoscroll
font size
0
reset
how to read this tab
guitar tuner
edit
Autoscroll
slow
fast
+/-
esc
set tempo
stop
estha es la cancion de los sanguinarios un amigo melo
pidio y se la sak y aki estha usthedes
tambien agan lo mismo pidanme una cancion a esthe correo i io ser las
saco soy hever aron moreno mreno   este es mi correo
skate_el_timberlano@

estos son los tonos k se ocupan en la cancion


    DO7         DOm7        RE7        SOL
1----0---   1----0---   1----0---   1---0---
2----1---   2----2---   2----3---   2---3---
3----3---   3----4---   3----5---   3---4---
4----2---   4----3---   4----4---   4---5---
5----3---   5----4---   5----5---   5---0---
6----0---   6----0---   6----0---   6---0---

este es un requinteo k va con toda la cancion
allenle el ridmo y luego lo acn con otro guitarrista
esthe requinteo va cuando se estha cantando okk
ai so los dejo


1-------------------------------------------------------------------
2-0-0--------1-1---1-1---1-1---0--1--3-3--1--3-3--1--3-3--3-3--1--0-
3-0-0--------2-2---2-2---2-2---0--2--4-4--2--4-4--2--4-4--4-4--2--0-
4-----4-2-0------0-----0-----0--------------------------------------

1---------------------------------------
2--4-4--4-4---3--1--0-------------------
3--5-5--5-5---4--2--0---0-0-------------
4---------------------------4-2-0-------


DO7      DOm7 RE7
Con cuerno de chivo

y basuka en la nuca
         SOL
volando cabezas

al que se atraviesa
            DO7
somos sanguinarios
     DO7 DOm7 RE7
locos bien ondeados
         SOL
nos gusta matar

(asi va toda la cancion kon ese tono i espero k le guste jj)

pa dar levantotes
somos los mejores
siempre en caravana
toda mi plebada
bien empecherados
blindados y listos
para ejecutar

con una llamada
privada se activan
los altos niveles
de los aceleres
de torturaciones
balas y explosiones
para controlar

LA gente se Asusta
y nunca se preguntan
si ven los comando
cuando van pasando
todos enfierrados
bien encapuchados
y bien camuflash

soy el numero 1
de clave m1
respaldado por el mayo y por el chapo
LA JT siempre
presente y pendiente
pa su apoyo dar

seguiré creciendo
y mas gente cayendo
por algo soy el ondeado respetado
Manuel Torres Félix
MI nombre
y soy nacido
haya en Culiacán


espero k le guste no lo olviden ai estha mi correo se los repito
arre i kalifikenme te kiero gladis aun k no andemos te amo
ok iiii saluds alos de la 33  mariano matamoros pipila
morelos purro corridoppp arre al rato
skate_el_timberlano@

            
            
Suggest correction
Creating personal tab
Creating personal tab
You can edit any tab online and save it as your Personal.

You can edit, replace or remove any tab part or add personal notes – all changes will be seen only by you.

Personal tabs can be accessed anytime from any device, even offline.
Learn more »
Give kudos to tab author, rate the tab!
1 2 3 4 5
comments
print report bad tab
guest
Wanna post a correction for this tab? Suggest correction