Oops, an error
Loading. Please wait.

Cinema bass

97 views 3 this week
no commentswrite comment
1 2 3 4 5
3 more votes to show rating
add to favorites
×
Save as Personal and add changes to this tab that will be seen only by you. Learn more ›
×
You can save this tab as Personal to edit and correct it or add notes. All changes will be seen only by you. Learn more »
launch autoscroll
font size
0
reset
guitar tuner
edit
Autoscroll
slow
fast
+/-
esc
set tempo
stop
G-------------
D-------------
A---3-----2---
E-------------  x2

-------------------------4-----------
----------------------4--------------
-3--2--------2--3--2--------3--5--7--     (Siempre lo mismo)
-------2--5--------------------------

Porque tu amor es el latido pero yo pienso en positivo
Y abra la carnicería y me coloque batería
Para que cuando este el momento frape
Pueda resolverlo en frió

Los pibes ya no juegan si no enchufan o se pegan
Los nenes con las nenas pronto arrancan la pelea
Quiere q avises cuando vas a acabar
Para tragar a la chanchada.

Ya no te siento, tocas para entrar
Al menos no te miento como anteayer
Ya no te siento, tocas para entrar
Al menos no te miento como hacia?.

----------
----------
--3--5--7-
----------

-----------------
-----------------
--3--5(termina)--
-----------------

Seis botellas en la mesa hay para la cena
Tres son ginebra, dos Stella y una esterma
Para que tanto alcohol que metabolizar
O yo Matias vomitando el mar

Salís, corres, te divertís?
Tenes tus ecuaciones y momentos de emociones
Y claro que calcular de mas esta mal
Atrae brujos y echa dones

Ya no te siento, tocas para entrar
Al menos no te miento como anteayer
Ya no te siento, tocas para entrar
Al menos no te miento como hacia?.

------------
------------
--3--5--7---
------------

------------
------------
--3--5--2---
------------

//

Cuando empieza el solo de saxo.

----------4--------------------------
-------4-----------------------------
-3--2--------3--2--------2--3--5--7--
-------------------2--5--------------  x4

-------------------------4-----------
----------------------4--------------
-3--2--------2--3--2--------3--5--7--     (Siempre lo mismo)
-------2--5--------------------------

Salís, corres, te divertís?
Tenes tus ecuaciones y momentos de emociones
Y claro que calcular de mas esta mal
Atrae brujos y echa dones

Ya no te siento, tocas para entrar
Al menos no te miento como anteayer
Ya no te siento, tocas para entrar
Al menos no te miento como hacia anteayer?

----------4--------------------------
-------4-----------------------------
-3--2--------3--2--------2--3--5--7--
-------------------2--5--------------  x2

-------------
-------------
---3-----2---
-------------  x2

Bueno gente, espero que les sirva, practiquen que no es muy difícil :)

Les mando un saludos desde Neuquén
a todos los integrantes de "El Kuelgue"
y los quiero felicitar por la HERMOSA música que hacen
que me acompaña en todo momento :)

            
            
Suggest correction
Creating personal tab
Creating personal tab
You can edit any tab online and save it as your Personal.

You can edit, replace or remove any tab part or add personal notes – all changes will be seen only by you.

Personal tabs can be accessed anytime from any device, even offline.
Learn more »
Give kudos to tab author, rate the tab!
1 2 3 4 5
comments
print report bad tab
guest
Wanna post a correction for this tab? Suggest correction