Oops, an error
Loading. Please wait.

Ad90 tab

25 views 1 this week
no commentswrite comment
1 2 3 4 5
3 more votes to show rating
add to favorites
×
Save as Personal and add changes to this tab that will be seen only by you. Learn more ›
×
You can save this tab as Personal to edit and correct it or add notes. All changes will be seen only by you. Learn more »
launch autoscroll
font size
0
reset
how to read this tab
guitar tuner
edit
Autoscroll
slow
fast
+/-
esc
set tempo
stop
RIFF 1
e-------------
B-------------
G-------------
D-9b10--9b10--
A-9b10--9b10--
E-7b-8--7b-8--

RIFF 2
e-------------------------------------------------
B-------------------------------------------------
G-------------------------------------------------
D-4-4--4-4-4--8-8--8-8-8--4-4--4-4-4--8-8--11-11--
A-4-4--4-4-4--8-8--8-8-8--4-4--4-4-4--8-8--11-11--
E-2-2--2-2-2--6-6--6-6-6--2-2--2-2-2--6-6---9--9--

RIFF 3
e------------------------------
B------------------------------
G-6-----6-----5/6-5/6-5/6-5/6--
D-6--6--6--6--5/6-5/6-5/6-5/6--
A-4--6--4--6--3/4-3/4-3/4-3/4--
E----4-----4-------------------

RIFF 4
e----------------------------------------
B----------------------------------------
G-7--7--------7--7--------7--7-----------
D-7--7--7--7--7--7--7--7--7--7--7--7--9--
A-5--5--7--7--5--5--7--7--5--5--7--7--9--
E-------5--5--------5--5--------5--5--7--

RIFF 5
e----------------------------------
B----------------------------------
G-4-----4-----4-----7--4--4--4-----
D-4--4--4--4--4--4--7--4--4--4--4--
A-2--4--2--4--2--4--5--2--4--2--4--
E----2-----2-----2--------2-----2--

RIFF 6
e-------------------
B-------------------
G-------------------
D-3--3--3--7--7--7--
A-3--3--3--7--7--7--
E-1--1--1--5--5--5--

INTRO= RIFF 1 - RIFF 2 (X2)

(Sobre RIFF 2)
SIGUE Y SIGUE POR LA TELEVISION
EL CIRCO DE LOS POLITICOS
LA EDUCACION BLA, BLA
LA EDUCACION BLA, BLA
LA EDUCACION BLA, BLA
LA EDUCACION 
NO SE INGLES, NADA DE POLITICA
MENOS DE COMPUTACION
NO SE INGLES, NADA DE POLITICA
MENOS DE COMPUTACION

(Sobre RIFF 3)
CONFUSION, FRUSTRACION
NO SE, NO SE, NO SE, NO SE

(Sobre RIFF 4)
A.D. 90 SOY, A.D. 90 SOY
A.D. 90 SOY, AH!
A.D. 90 SOY, A.D. 90 SOY
A.D. 90 SOY, AH!
A.D. 90 SOY, A.D. 90 SOY
A.D. 90 SOY, AH!
A.D. 90 SOY, A.D. 90 SOY
A.D. 90 SOY, AH!

RIFF 5 (X2)

(Sobre RIFF 2)
SIGUE Y SIGUE POR LA TELEVISION
EL CIRCO DE TODOS LOS DIAS
1970
1980
1990
1990
NO SE SI ENTENDES, NO SE SI COMPRENDES
ADOLESCENTE A.D. 90
LA CONFUSION TOTAL
LA CONFUSION MORAL
LA CONFUSION SOCIAL
LA CONFUSION 

(Sobre RIFF 3)
CONFUSION, FRUSTRACION
NO SE, NO SE, NO SE, NO SE

(Sobre RIFF 4)
A.D. 90 SOY, A.D. 90 SOY
A.D. 90 SOY, AH!
A.D. 90 SOY, A.D. 90 SOY
A.D. 90 SOY, AH!
A.D. 90 SOY, A.D. 90 SOY
A.D. 90 SOY, AH!
A.D. 90 SOY, A.D. 90 SOY
A.D. 90 SOY, AH!

RIFF 5 (X2)

RIFF 6 (x4)

Eso es todo, para comentarios, pedidos, puteadas, etc. 
mandenmen un mail a neotokio3@

AGUANTE EL OTRO YO!!!!
LA CUMBIA ES UNA MIERDA!!!!

            
            
Suggest correction
Creating personal tab
Creating personal tab
You can edit any tab online and save it as your Personal.

You can edit, replace or remove any tab part or add personal notes – all changes will be seen only by you.

Personal tabs can be accessed anytime from any device, even offline.
Learn more »
Give kudos to tab author, rate the tab!
1 2 3 4 5
comments
print report bad tab
guest
Wanna post a correction for this tab? Suggest correction