Oops, an error
Loading. Please wait.

Cuantas Noches bass

62 views 1 this week
no commentswrite comment
1 2 3 4 5
3 more votes to show rating
add to favorites
×
Save as Personal and add changes to this tab that will be seen only by you. Learn more ›
×
You can save this tab as Personal to edit and correct it or add notes. All changes will be seen only by you. Learn more »
launch autoscroll
font size
0
reset
guitar tuner
edit
Autoscroll
slow
fast
+/-
esc
set tempo
stop
El Parque - Cuantas Noches
Tab por: Juan Ernesto Gamboa (bajista de Esencia Kepah
y el Proyecto ADAGIO)
email: jg22_jr@

Intro:
  Dm                      F6             G6
G|----------|-----------|-------------|---------------|	Antes 	|-----|
D|-----7-7--|------7-7--|------10-10--|--------12-12--|	de pasar|-----|
A|--5-------|--5-5------|--8-8--------|--10-10--------|	al coro	|--5~-|
E|----------|-----------|-------------|---------------|	se toca	|-----|

Coro
  Dm		      F6		  G6		      F6
		    2x			2x
G|-------------------|-------------------|-------------------|-------------------|
D|*-----------------*|*-3-3-3-3-3-3-3-3-*|--5-5-5-5-5-5-5-5--|--3-3-3-3-3-3-3-3--|
A|*-5-5-5-5-5-5-5-5-*|*-----------------*|-------------------|-------------------|
E|-------------------|-------------------|-------------------|-------------------|

  Bb
G|-------------------|
D|-------------------|
A|-------------------|
E|--6-6-6-6-6-6-6-6--|

Post-Coro
  G6    Bb    Dm
G|-----|-----|-----|
D|-----|-----|-----|
A|-----|-----|--5~-|
E|--3~-|--6~-|-----|

Verso
Coro
Post-Coro

Solo:
  Dm                      F6
G|----------|------------|----------|------------|
D|-----7-7--|-------7-7--|----------|------------|
A|--5-------|--5-5-------|----------|------------|
E|----------|------------|--1--1-1--|--1-1--1-1--|

G6	     Bb							2x
G|----------|----------|------------|----------|------------|
D|----------|----------|------------|*---------|-----------*|
A|----------|----------|------------|*-5--5-5--|--5-5--5-5-*|
E|--3--3-3--|--6--6-6--|--6-6--6-6--|----------|------------|


G|----------|------------|----------|----------|------------|
D|----------|------------|----------|----------|------------|
A|----------|------------|----------|----------|------------|
E|--1--1-1--|--1-1--1-1--|--3--3-3--|--6--6-6--|--6-6--6-6--|

  Cm	     Dm		     2x
G|----------|----------|------|
D|----------|----------|*----*|
A|--3--3-3--|--5--5-5--|*-5~-*|
E|----------|----------|------|

Coro
Post Coro hasta el final

            
            
Suggest correction
Creating personal tab
Creating personal tab
You can edit any tab online and save it as your Personal.

You can edit, replace or remove any tab part or add personal notes – all changes will be seen only by you.

Personal tabs can be accessed anytime from any device, even offline.
Learn more »
Give kudos to tab author, rate the tab!
1 2 3 4 5
comments
print report bad tab
guest
Wanna post a correction for this tab? Suggest correction