Oops, an error
Loading. Please wait.

Enganchados De Los Leales tab

34 views 1 this week
no commentswrite comment
1 2 3 4 5
3 more votes to show rating
add to favorites
×
Save as Personal and add changes to this tab that will be seen only by you. Learn more ›
×
You can save this tab as Personal to edit and correct it or add notes. All changes will be seen only by you. Learn more »
launch autoscroll
font size
0
reset
how to read this tab
guitar tuner
edit
Autoscroll
slow
fast
+/-
esc
set tempo
stop
Em                           C
Es sentir de nuevo tus caricias
RE                         G
es tener tu cuerpo para amar,otra vez
Em                              C
es sentir tus labios en los mios
     F                  D
Me llena de amor,de felicidad
   G                            D
Has vuelto mi amor,no sabes cuanto
         Em
le he pedido a dios
        Bm                   C
Que regreses a mis brazos mujer
         G            D
es que te amo,es que te amo
                  Em   D
te llevo en mi piel.

E-------------7-8-10/12-10---------------------
B-/8-8-7-8-10--------------12-10---------------
G--------------------------------12-11-9-11-12-
D----------------------------------------------
A----------------------------------------------
E----------------------------------------------

E-------10h12-10----------------------------------
B-10-12-------------8-7-5-------------------------
G--------------------------9-11-12-11-9-9h11------
D----------------/9-9-7-5--------------------12-9-
A-------------------------------------------------
E-------------------------------------------------

E-7-----------------------------------------------
B-7-----------------------------------------------
G-7-----------------------------------------------
D-9--------------2-3-5/7-5-5p4----------4-5-7/9-7-
A----2/3-3-2-3-5---------------7-5-4-5-7----------
E-------------------------------------------------

E------------------------------3h5-3-3p2----------
B------------5-------------5-6----------5-3-2-3-5-
G------------4--/5-5-4-5-7------------------------
D-7h9p7-5-5--5------------------------------------
A--------7----------------------------------------
E-------------------------------------------------

E-2-3-5/7-5---------------------(12)---
B-------------------------------(12)---
G-------------4--5-----5---8----(12)---
D-----------5----4-----4---7-----------
A----------------5-5---5---------------
E--------------------------------------
                   Pm..
E----------------------------
B----/8-8-6-6----------------
G-------------9-9-7h9p7------
D-----------------------10-9-
A----------------------------
E----------------------------

E--------5--------------------------------------
B--------5--/10-10-8-8--------------------------
G--------5-------------10-10-9-10p9-------------
D-10p9-7-7--------------------------12-10-10h12-
A-----------------------------------------------
E-----------------------------------------------


E-----------------------------------------------
B---------------/8-8-6-6------------------------
G------------------------9-9-7h9p7--------------
D-10-9---9-9-----------------------10-9-10p9----
A------10---------------------------------------
E-----------------------------------------------


E-------------------------------------------------
B-/10-10-8----------------------------------------
G---------10-9-9h10-9-10p9------------------------
D-------------------------12-10-10h12-10-9----9-9-
A------------------------------------------10-----
E-------------------------------------------------


E-/8-8-5---5-8-8/10-7---7-10-10/12-10-10h12p10------
B-------6-6----------8-8----------------------13-12-
G---------------------------------------------------
D---------------------------------------------------
A---------------------------------------------------
E---------------------------------------------------


E-------------/-8-8-5---5-8-8/10-7---7-10-7h8-8-
B-12h13p12-10--------6-6----------8-8-----------
G-----------------------------------------------
D-----------------------------------------------
A-----------------------------------------------
E-----------------------------------------------


E--7-10-8-----------------------8----
B-8------8-10-8h10p8-------------8---
G-------------------9-10-9h10p9---9--
D------------------------------------
A------------------------------------
E------------------------------------


C                         Em
si no puedo tener mas tus besos,
C                              Em
si no puedo sentir mas tu cuerpo
F                                       G
para que segir intentando vivir esta vida
 Am                                Em
cuanto,cuanto me cuesta vivir sin ti...
 Am                                Em
cuanto,cuanto me cuesta amar otra vez...
F                       G
cuando intento amar,apareces tu
Em                           Am
y de mi mente no te puedo borrar
F                                      G
no imaginas cuanton sufro al no estar tu.....

C                        Am
Vuelve te lo pido...vuelve... Por favor
     F                  G
vuelve que te espera,aqui mi corazon--
C                       Am
vuelve te lo pido..vuelve..por favor...
    F               G             F    C
Vuelve que te espera aquí  mi corazon


bueno este es un temazo que se lo dedico a todos los
cumbieros del pais y cualquier duda ya saben mi correo

aguante central norte de salta

            
            
Suggest correction
Creating personal tab
Creating personal tab
You can edit any tab online and save it as your Personal.

You can edit, replace or remove any tab part or add personal notes – all changes will be seen only by you.

Personal tabs can be accessed anytime from any device, even offline.
Learn more »
Give kudos to tab author, rate the tab!
1 2 3 4 5
comments
print report bad tab
guest
Wanna post a correction for this tab? Suggest correction