Oops, an error
Loading. Please wait.

Linda Princesa tab

92 views 1 this week
no commentswrite comment
1 2 3 4 5
3 more votes to show rating
add to favorites
×
Save as Personal and add changes to this tab that will be seen only by you. Learn more ›
×
You can save this tab as Personal to edit and correct it or add notes. All changes will be seen only by you. Learn more »
launch autoscroll
font size
0
reset
how to read this tab
guitar tuner
edit
Autoscroll
slow
fast
+/-
esc
set tempo
stop
La primera vez que subo una transcripcion de una cancion :' D
algo de nervio
bueno hay les va:)


OJO!:_puede que si no llebas el ritmo de la cancion no te saldra muy
bien el requinto;)

(esto se toca al ritmo de la cancion)
que vendria ciento abajo arriba

e.-9--9--9--9---12--9---7-7-7-7---10--7---5-5-5-5--7--5--5-5-
B.-10-10-10-10----------8-8-8-8-----------6-6-6-6--9--6--6-6-
G.-----------------------------------------------------------
D.-----------------------------------------------------------
A.-----------------------------------------------------------
E.-----------------------------------------------------------


e.-7-7-7-7---10--7--5-5-5-5---8--5--5/10-10-10-10-10--9--10--
B.-8-8-8-8----------6-6-6-6---------6/12-12-12-12-12--10-12--
G.-----------------------------------------------------------
D.-----------------------------------------------------------
A.-----------------------------------------------------------
E.-----------------------------------------------------------


e.-10-10---------
B.-12-12---------
G.---------------
D.---------------
A.---------------
E.---------------

Este adorno le puedes poner donde se escucha el bajo al final del
intro (tambien es al ritmo de la cancion)

e.-10-10-12-10-12-
B.-12-12-12-12-12-
G.----------------
D.----------------
A.----------------
E.----------------


A                         E                   D                A
Yo miro en tus ojos de niña esa luz que ilumina mi mundo de amor
A                         E                   D                A
yo siento aqui dentro del pecho q t estoy keriendo con loca pasion
D                      E D                          E
mi vida no tiene sentido  si pasa tiempo y no te miro.

A                      E                   D                A
Me siento tan afortunado cuando tu a mi lado te sientes feliz
A                         E                   D                 A
chiquilla te estoy adorando con todas las fueras que existen en mi
D            E               D                       E  E7
lo que te digo no es mentira te quiero yo mas cada dia
E7       D   E  D                         E
linda princesa  mis sueños son poder amarte
D                       E D                       A E E7
tu piel poder acariciarte hasta fundirnos en pasion
E7       D   E  D                      E
linda princesa  de ti yo estoy enamorado
D                        E D                      A
y juro que estar a tu lado es todo lo que quiero yo

e.-9--9--9--9---12--9---7-7-7-7---10--7---5-5-5-5--7--5--5-5-
B.-10-10-10-10----------8-8-8-8-----------6-6-6-6--9--6--6-6-
G.-----------------------------------------------------------
D.-----------------------------------------------------------
A.-----------------------------------------------------------
E.-----------------------------------------------------------


e.-7-7-7-7---10--7--5-5-5-5---8--5--10-10-10-10-10--9--10----
B.-8-8-8-8----------6-6-6-6---------12-12-12-12-12--10-12----
G.-----------------------------------------------------------
D.-----------------------------------------------------------
A.-----------------------------------------------------------
E.-----------------------------------------------------------


e.-10-10---------
B.-12-12---------
G.---------------
D.---------------
A.---------------
E.---------------

Este adorno le puedes poner donde se escucha el bajo al final del
intro (tambien es al ritmo de la cancion)

e.-10-10-12-10-12-
B.-12-12-12-12-12-
G.----------------
D.----------------
A.----------------
E.----------------

A                      E                   D                A
Me siento tan afortunado cuando tu a mi lado te sientes feliz
A                         E                   D                 A
chiquilla te estoy adorando con todas las fueras que existen en mi
D            E               D                       E  E7
lo que te digo no es mentira te quiero yo mas cada dia
E7       D   E  D                         E
linda princesa  mis sueños son poder amarte
D                       E D                       A E E7
tu piel poder acariciarte hasta fundirnos en pasion
E7       D   E  D                      E
linda princesa  de ti yo estoy enamorado
D                        E D                      A
y juro que estar a tu lado es todo lo que quiero yo


e.-9--9--9--9---12--9---7-7-7-7---10--7---5-5-5-5--7--5--5-5-
B.-10-10-10-10----------8-8-8-8-----------6-6-6-6--9--6--6-6-
G.-----------------------------------------------------------
D.-----------------------------------------------------------
A.-----------------------------------------------------------
E.-----------------------------------------------------------

(el pedaso que sige lo pueden hacer asi)

e.-7-7-7-7---10--7--5-5-5-5---8--5--5/10-10-10-9--10-9-------
B.-8-8-8-8----------6-6-6-6---------6/12-12-10-10-12-10------
G.-----------------------------------------------------------
D.-----------------------------------------------------------
A.-----------------------------------------------------------
E.-----------------------------------------------------------

(o asi, como a mi me gusta)


e.-7-7-7-7---10--7--5-5-5-5---8--5--5/10-10-10-10-9--10------
B.-8-8-8-8----------6-6-6-6---------6/12-12-12-12-10-12------
G.-----------------------------------------------------------
D.-----------------------------------------------------------
A.-----------------------------------------------------------
E.-----------------------------------------------------------


grcs>=)


~keivivegaa,*

            
            
Suggest correction
Creating personal tab
Creating personal tab
You can edit any tab online and save it as your Personal.

You can edit, replace or remove any tab part or add personal notes – all changes will be seen only by you.

Personal tabs can be accessed anytime from any device, even offline.
Learn more »
Give kudos to tab author, rate the tab!
1 2 3 4 5
comments
print report bad tab
guest
Wanna post a correction for this tab? Suggest correction