Oops, an error
Loading. Please wait.

Cantares tab

95 views 1 this week
no commentswrite comment
1 2 3 4 5
3 more votes to show rating
add to favorites
×
Save as Personal and add changes to this tab that will be seen only by you. Learn more ›
×
You can save this tab as Personal to edit and correct it or add notes. All changes will be seen only by you. Learn more »
launch autoscroll
font size
0
reset
how to read this tab
guitar tuner
edit
Autoscroll
slow
fast
+/-
esc
set tempo
stop
Esta rolita la saque a oido espero y les guste
y les sirva aqui se las dejo.

Intro:

e-10-10-8-7h8-7-7-7h8-7-------||
b----------------------8/10-10||

b-8h10-8-7h8-7-5h7-5-3h5-3-1h3-1-0h1-0||

Todo eso dos veces y despues:

g-2-2/4

e-10-7-||   -8-7--8-7-8--------------------------||
b-----8||x3 ----8--------5h7h8-8-7h8h10-10-10-8-8||x2

Y despues las notas que estan en la otra
transcripcion que son G-Em-C-D

En esta parte: "Caminante son tus huellas el camino y nada más,
caminante no hay camino, se hace camino al andar.
Al andar se hace camino y al volver la vista atrás,
se ve la senda que nunca se ha de volver a pisar.
Caminante no hay camino, sino estelas en la mar"

Va lo siguiente:

e-10-7h8-7-7--------------||
b-----------8/10-10-8h10-8||x4

Y al terminar va el siguiente riff para caer en G:

d-5-5-5-3-3-3---------------||
a-------------5-5-5-3-3-3--5||
E--------------------------3||


Despues otra ves la notas.

Solo:

b---7-8-10-8-7-------7-8-10-8-10-10/12-12||
g-/9-----------9---/9--------------------||

e-10-8-7-8-7h8p7----7-------7------------------||
b----------------10---10-8----10-8-10-8-7-7h8-8||

b-8-8--8-10-8-8--8-10-8-8--10-8-10-8||

e-8-8-8-10-10-10||x2 e-7-7-7-8-8-8-7

e---18-15--15--18-15--15--18-15--15-||
b-15-----15---------15---------15---||

e-10-7-||   -8-7--8-7-8--------------------------||
b-----8||x3 ----8--------5h7h8-8-7h8h10-10-10-8-8||

d-5-5-5-3-3-3---------------||
a-------------5-5-5-3-3-3--5||
E--------------------------3||

Y eso es todo, espero y les ayude,
si quieren ver como se hace vean mi video en
youtube:


y si quieren alhuna otra cancion escribanme en mi
canal de youtube o en mi correo:

vazquez-ricardo@  (de preferencia en mi canal)

            
            
Suggest correction
Creating personal tab
Creating personal tab
You can edit any tab online and save it as your Personal.

You can edit, replace or remove any tab part or add personal notes – all changes will be seen only by you.

Personal tabs can be accessed anytime from any device, even offline.
Learn more »
Give kudos to tab author, rate the tab!
1 2 3 4 5
comments
print report bad tab
guest
Wanna post a correction for this tab? Suggest correction