Oops, an error
Loading. Please wait.

My Only Swerving tab

version 1
version 1

Whole song

12,823 views 27 this week
3 commentsread comments
1 2 3 4 5
x 9
add to favorites
×
Save as Personal and add changes to this tab that will be seen only by you. Learn more ›
×
You can save this tab as Personal to edit and correct it or add notes. All changes will be seen only by you. Learn more »
launch autoscroll
font size
0
reset
how to read this tab
guitar tuner
edit
Autoscroll
slow
fast
+/-
esc
set tempo
stop
Author
-------------------------------------------------------------------------------
                             My Only Swerving - El Ten Eleven
-------------------------------------------------------------------------------
Tabbed by: Dak R.
Email:

Tuning:Standard EADGBE

Guitar 1
e|----------------------------------------|
B|----------------------------------------|
G|---9--9-9----9--9-9----9--9-9----9--9-9-|(repeat as needed)
D|----6--6------6--6------6--6------6--6--|
A|-----------0-------------------0--------|
E|-0-------------------7------------------|

Guitar 2
e|-12\7--7/9--11--4/7---------------------|
B|----------------------------------------|
G|----------------------------------------|(repeat as needed)
D|----------------------------------------|
A|----------------------------------------|
E|----------------------------------------|

Guitar 3
e|----------------------------------------|
B|--9-12-9---9-12-9---9-12-9---9-12-9-----|
G|----------------------------------------|
D|----------------------------------------|
A|----------------------------------------|
E|----------------------------------------|

He actually plays this on the bass and guitar while looping everything..
 pretty sweet but I dont have all that fancy equipment so it comes 
down to this..have fun


            
            
Suggest correction
Creating personal tab
Creating personal tab
You can edit any tab online and save it as your Personal.

You can edit, replace or remove any tab part or add personal notes – all changes will be seen only by you.

Personal tabs can be accessed anytime from any device, even offline.
Learn more »
comments
print report bad tab
3 comments total.
+1 reply
henman84 10 Sep 10, 2014 04:12 PM

In the Guitar 2 part, the second 7 before slide to the 9 should be a 4. 4/9 instead of 7/9 I believe

0 reply
surprisewalrus 70 Nov 02, 2017 05:43 PM

Also the 4/7 should be 2/7

0 reply
tibblesnbits5 368 Dec 09, 2014 01:20 PM

e|-12\7---9--11----7----------------------|
B|------9-------7-------------------------|
G|----------------------------------------|(repeat as needed)
D|----------------------------------------|
A|----------------------------------------|
E|----------------------------------------|

guest
You may want to rate the tab now too:
select rating
Wanna post a correction for this tab? Suggest correction