Oops, an error
Loading. Please wait.

Connection tab

version 3
version 3

Whole song

  • This tabs includes both guitars, keyboard translat... Show more

Interactive

1,039 views 45 this week
no commentswrite comment
1 2 3 4 5
1 last vote to show rating
add to favorites
×
Save as Personal and add changes to this tab that will be seen only by you. Learn more ›
×
You can save this tab as Personal to edit and correct it or add notes. All changes will be seen only by you. Learn more »
launch autoscroll
font size
0
reset
how to read this tab
guitar tuner
backing track
0:00
0:00
edit
Autoscroll
slow
fast
+/-
esc
set tempo
stop
Author
About this tab version
This tabs includes both guitars, keyboard translated in tab, lyrics, and also shows the rhythm. Was this info helpful? Yes No
Elastica - Connection


[Intro]

(only one guitar, in place of keyboards)

  1 + 2 + 3 + 4 + 1 + 2 + 3 + 4 + 1 + 2 + 3 + 4 + 1 + 2 + 3 + 4 +
e|----------------------------------------------------------------|
B|----------------------------------------------------------------|
G|------------------------------------------------8---x-7-6-x-6-x-|
D|8-x---6-8-x-8-x-8-x---6-8-x-8-x-8-x---6-8-x-8-x-8---x-7-6-x-6-x-| 2x
A|8-x---6-8-x-8-x-8-x---6-8-x-8-x-8-x---6-8-x-8-x-----------------|
E|----------------------------------------------------------------|


[Post-Verse 1]

(both guitars come in)
(guitar #1)

  1 + 2 + 3 + 4 + 1 + 2 + 3 + 4 + 1 + 2 + 3 + 4 + 1 + 2 + 3 + 4 +
e|----------------------------------------------------------------|
B|----------------------------------------------------------------|
G|------------------------------------------------8---x-7-6-x-6-x-|
D|8-----6-8-x-8-x-8---x-6-8-x-8-x-8---x-6-8-x-8-x-8---x-7-6-x-6-x-| 2x
A|8-----6-8-x-8-x-8---x-6-8-x-8-x-8---x-6-8-x-8-x-6---x-5-4-x-4-x-|
E|6-----4-6-x-6-x-6---x-4-6-x-6-x-6---x-4-6-x-6-x-----------------|

(guitar #2)

  1 + 2 + 3 + 4 + 1 + 2 + 3 + 4 + 1 + 2 + 3 + 4 + 1 + 2 + 3 + 4 +
e|----------------------------------------------------------------|
B|----------------------------------------------------------------|
G|------------------------------------------------15~-----15~-----|
D|8-8-8-8-8-8-8-8-8-8-8-8-8-8-8-8-8-8-8-8-8-8-8-8-----13~-----13~-| 2x
A|8-8-8-8-8-8-8-8-8-8-8-8-8-8-8-8-8-8-8-8-8-8-8-8-----------------|
E|6-6-6-6-6-6-6-6-6-6-6-6-6-6-6-6-6-6-6-6-6-6-6-6-----------------|


[Verse]

(guitar #1)

  1 + 2 + 3 + 4 + 1 + 2 + 3 + 4 + 1 + 2 + 3 + 4 + 1 + 2 + 3 + 4 +
e|----------------------------------------------------------------|
B|----------------------------------------------------------------|
G|------------------------------------------------8---x-7-6-x-6-x-|
D|8-----6-8-x-8-x-8---x-6-8-x-8-x-8---x-6-8-x-8-x-8---x-7-6-x-6-x-| 2x
A|8-----6-8-x-8-x-8---x-6-8-x-8-x-8---x-6-8-x-8-x-6---x-5-4-x-4-x-|
E|6-----4-6-x-6-x-6---x-4-6-x-6-x-6---x-4-6-x-6-x-----------------|

(guitar #2)

  1 + 2 + 3 + 4 + 1 + 2 + 3 + 4 + 1 + 2 + 3 + 4 + 1 + 2 + 3 + 4 +
e|----------------------------------------------------------------|
B|----------------------------------------------------------------|
G|------------------------------------------------8-8-8-7-6-6-6-6-|
D|8-8-8-8-8-8-8-8-8-8-8-8-8-8-8-8-8-8-8-8-8-8-8-8-8-8-8-7-6-6-6-6-| 2x
A|8-8-8-8-8-8-8-8-8-8-8-8-8-8-8-8-8-8-8-8-8-8-8-8-6-6-6-5-4-4-4-4-|
E|6-6-6-6-6-6-6-6-6-6-6-6-6-6-6-6-6-6-6-6-6-6-6-6-----------------|


[Pre-Chorus]

(guitar #1)

  1 + 2 + 3 + 4 + 1 + 2 + 3 + 4 + 1 + 2 + 3 + 4 + 1 + 2 + 3 + 4 +
e|----------------------------------------------------------------|
B|----------------------------------------------------------------|
G|----------------------------------------------------------------|
D|4-4-4-4-4-4-4-4-4-4-4-4-4-4-4-4-4-4-4-4-4-4-4-4-4-4-4-4-4-4-4-4-|
A|4-4-4-4-4-4-4-4-4-4-4-4-4-4-4-4-4-4-4-4-4-4-4-4-4-4-4-4-4-4-4-4-|
E|2-2-2-2-2-2-2-2-2-2-2-2-2-2-2-2-2-2-2-2-2-2-2-2-2-2-2-2-2-2-2-2-|

(guitar #2)

  1 + 2 + 3 + 4 + 1 + 2 + 3 + 4 + 1 + 2 + 3 + 4 + 1 + 2 + 3 + 4 +
e|----------------------------------------------------------------|
B|--------------------------------7-6-7-6-7-6-7-6-7-6-7-6-7-6-7-6-|
G|----------------------------------------------------------------|
D|4-----------x---4-----------x-----------------------------------|
A|4-----------x---4-----------x-----------------------------------|
E|2-----------x---2-----------x-----------------------------------|

 
[Chorus]

(both guitars)

  1 + 2 + 3 + 4 + 1 + 2 + 3 + 4 + 1  +  2  +  3  +  4  +  1 + 2 + 3 + 4 +
e|------------------------------------------------------------------------|
B|------------------------------------------------------------------------|
G|------------------------------------------------------------------------|
D|8-8-8-8-8-8-8-8-8-8-8-8-8-8-9-9-10-10-10-10-10-10-10-10-x---------------|
A|6-6-6-6-6-6-6-6-6-6-6-6-6-6-7-7-8--8--8--8--8--8--8--8--x---------------|
E|------------------------------------------------------------------------|


[Pre-Verse 2]

(guitar #1)

  1 + 2 + 3 + 4 + 1 + 2 + 3 + 4 + 1 + 2 + 3 + 4 + 1 + 2 + 3 + 4 +
e|----------------------------------------------------------------|
B|----------------------------------------------------------------|
G|------------------------------------------------8---x-7-6-x-6-x-|
D|8-----6-8-x-8-x-8---x-6-8-x-8-x-8---x-6-8-x-8-x-8---x-7-6-x-6-x-| 2x
A|8-----6-8-x-8-x-8---x-6-8-x-8-x-8---x-6-8-x-8-x-6---x-5-4-x-4-x-|
E|6-----4-6-x-6-x-6---x-4-6-x-6-x-6---x-4-6-x-6-x-----------------|


(guitar #2)

  1 + 2 + 3 + 4 + 1 + 2 + 3 + 4 + 1 + 2 + 3 + 4 + 1 + 2 + 3 + 4 +
e|----------------------------------------------------------------|
B|----------------------------------------------------------------|
G|15--15--13--13--15--15--13--13--15--15--13--13--15~-----15~-----|
D|----------------------------------------------------13~-----13~-| 2x
A|--13--13--13--13--13--13--13--13--13--13--13--13----------------|
E|----------------------------------------------------------------|


[Repeat Verse]

[Repeat Pre-Chorus]

[Repeat Chorus]

[Repeat ONE BAR of Pre-Verse 2]

[Repeat Pre-Verse 1]

End.


Lyrics:


[Intro]


[Pre-Verse 1]


[Verse 1]

Riding on any wave,
That is the luck you crave,
They don't believe it now,
They just think it's stupid,
So got anything?
Anyone could have done,
Who would've cared at all,
not you.


[Pre-Chorus]

Another heart has made the trade,
Forget it, forget it, forget it,


[Chorus]

I don't understand how a heart is a spade,
But somehow the vital connection is made.


[Pre-Verse 2]


[Verse 2]

Riding on anything,
Anything's good enough,
Who would've thought it of
Someone like you,
Just as they brought me round,
Now that they brought you down,
Roundabout and roundabout
Who wants a life anyway?


[Pre-Chorus]

Another heart has made the grade,
Forget it, forget it, forget it,


[Chorus]

I don't understand how the last card is played,
But somehow the vital connection is made.


[Pre-Verse 2] - 1 bar.


[Pre-Verse 1]

************************************ 

| x   Dead note
| g   Grace note
| (n) Ghost note
| h   Hammer-on
| p   Pull-off
| r   Release
| >   Accented note
| t   Tapping
| b   Bend
| br  Bend release
| pb  Pre-bend
| pbr Pre-bend release
| /   Slide up
| \   Slide down
| ~   Vibrato
| s   Slap
| P   Pop
| PM  Palm mute
| TR  Trill
| N   Tremolo 

************************************

            
            
Suggest correction
Creating personal tab
Creating personal tab
You can edit any tab online and save it as your Personal.

You can edit, replace or remove any tab part or add personal notes – all changes will be seen only by you.

Personal tabs can be accessed anytime from any device, even offline.
Learn more »
Give kudos to tab author, rate the tab!
1 2 3 4 5
comments
print report bad tab
guest
You may want to rate the tab now too:
select rating
Wanna post a correction for this tab? Suggest correction