Oops, an error
Loading. Please wait.

Unforgiven chords

by Electra
3,099 views 1 this week
no commentswrite comment
1 2 3 4 5
2 more votes to show rating
add to favorites
×
Save as Personal and add changes to this tab that will be seen only by you. Learn more ›
×
You can save this tab as Personal to edit and correct it or add notes. All changes will be seen only by you. Learn more »
launch autoscroll
font size
0
reset
transpose
0
reset
display chords
guitar tuner
edit
Autoscroll
slow
fast
+/-
esc
set tempo
stop
Author
Strumming
There is no strumming pattern for this song yet. and get +5 IQ
Hi, this is "Unforgiven" by Israeli spectacular rock band "Electra". 
Official website: http://www.electramusic.com
Enjoy!

Chords used:
F#m 244222
D   x57775
C#  x46664
A   577655
E   x79997
B   x24442
G#  466544

[Intro]

A G# F#m
A G# F#m
A      G#
Will I be


[Verse 1]

F#m
Forgiven
               D    C#
Standing in the Hallway
               F#m
Staring in the mirror
            D         C#
Fearing what it might say


[Bridge]

B
I am not to blame I'm not to be blamed
    D
of putting you to shame putting you to shame
   A
I know
   E
I know

e|--------------------|
B|---9--------10------|
G|-----9--------10----|
D|-------9---------10-|
A|-7-------8----------|
E|--------------------|


[Chorus]

F#m        D         C#
    Seven minutes to go
                 A  D A
Standing at the door  fading slowly
        F#m              E
Saw a promise in us but once and now I
A           C#
  I got so bored with shame

too numb to call your name to call your


[Verse 2]

F#m
name
                   D       C#
I bet that we could have a ball
              F#m
My mind begs please
                 D       C#
please forget you had it all


[Bridge]

B
I am not to blame I'm not to be blamed
    D
of putting you to shame putting you to shame
   A
I know
   E
I know

e|--------------------|
B|---9--------10------|
G|-----9--------10----|
D|-------9---------10-|
A|-7-------8----------|
E|--------------------|


[Chorus]

F#m        D         C#
    Seven minutes to go
                 A  D A
Standing at the door  fading slowly
        F#m              E
Saw a promise in us but once and now I
A           C#
  I got so bored with shame

too numb to call your name to call your


Solo Riff:
F#m F#m
D C#
(play twice before solo, and keep playing over solo)


[Solo]

e|---------------------------------------------------------------------------|
B|---------7^--------------------6^-------------7----------7-7-7-7/14--------|
G|-------------------7^-----------------------6----------6-------------------|
D|-4^------------------------------------------------------------------------|
A|---------------------------------------------------------------------------|
E|---------------------------------------------------------------------------|

e|-----------------------------------------------7---------------------------|
B|----14-14-12-10-14~--------7-6-7-9-7-9-10-9-10---10-9-10---9---7-----------|
G|-------------------------6-------------------------------------------------|
D|---------------------------------------------------------------------------|
A|---------------------------------------------------------------------------|
E|---------------------------------------------------------------------------|

e|-------------------------------------------------5-5-7-5-4-----------------|
B|-3-3-3-2---6-------6-6-7-6------6-7-6--------6-7---------------------------|
G|---------4-----------------6----------6------------------------------------|
D|---------------------------------------------------------------------------|
A|---------------------------------------------------------------------------|
E|---------------------------------------------------------------------------|
(^ = pick several times quickly, / = slide up, ~ = vibrato)

F#m
    Unforgiven
                   D       C#
I bet that we could have a ball
              F#m
My mind begs please
                 D       C#
please forget you had it all

B D
   A
I know
   E
I know


[Chorus]

F#m        D         C#
    Seven minutes to go
                 A  D A
Standing at the door  fading slowly
        F#m              E
Saw a promise in us but once and now I
A           C#
  I got so bored with shame

F#m        D         C#
    Seven minutes to go
                 A  D A
Standing at the door  fading slowly
        F#m              E
Saw a promise in us but once and now I
A           C#
  I got so bored with shame

too numb to call your

 C#  B   A   G# F#m
Name to call yo-ur

Oh what a song. Enjoy!



************************************

| /  Slide up
| ~  Vibrato

************************************

            
            
Suggest correction
Creating personal tab
Creating personal tab
You can edit any tab online and save it as your Personal.

You can edit, replace or remove any tab part or add personal notes – all changes will be seen only by you.

Personal tabs can be accessed anytime from any device, even offline.
Learn more »
Give kudos to tab author, rate the tab!
1 2 3 4 5
comments
print report bad tab
guest
You may want to rate the tab now too:
select rating
Wanna post a correction for this tab? Suggest correction