Oops, an error
Loading. Please wait.

Awake bass

version 1
version 1

Whole song

Interactive

4,905 views 18 this week
1 commentread comment
1 2 3 4 5
x 3
add to favorites
×
Save as Personal and add changes to this tab that will be seen only by you. Learn more ›
×
You can save this tab as Personal to edit and correct it or add notes. All changes will be seen only by you. Learn more »
launch autoscroll
font size
0
reset
guitar tuner
edit
Autoscroll
slow
fast
+/-
esc
set tempo
stop
Author
Difficulty
-------------------------------------------------------------------------------
                             AWAKE - Electric Guest
-------------------------------------------------------------------------------
Tabbed by: Émil Grenier
E-mail: superemilyo@hotmail.com

Tuning: Standard

Intro
G|-------6-----4-6-6---------------------------|| Repeat until chorus
D|---------4-6--------4--2----2--4----4--4--2--||
A|--4------------------------------------------||
E|---------------------------------------------||

Chorus
G|--------------------------------------------------------------------|
D|--------------------------------------------------------------------|
A|--4-4-4-4-4-4-4-4-2-2-2-2-2-2-2-2-----------------------------------|
E|----------------------------------2-2-2-2-2-2-2-2-5-5-5-5-5-5-5-5---|

G|--------------------------------------------------------------------|
D|--------------------------------------------------------------------|
A|--4-4-4-4-4-4-4-4-2-2-2-2-2-2-2-2-----------------------------------|
E|----------------------------------2-2-2-2-2-2-2-0-2-2-2-2-2-2-2-2---|

Same riff as the intro

G|-------6-----4-6-6---------------------------|| Repeat until chorus
D|---------4-6--------4--2----2--4----4--4--2--||
A|--4------------------------------------------||
E|---------------------------------------------||

Chorus once again

G|--------------------------------------------------------------------|
D|--------------------------------------------------------------------|
A|--4-4-4-4-4-4-4-4-2-2-2-2-2-2-2-2-----------------------------------|
E|----------------------------------2-2-2-2-2-2-2-2-5-5-5-5-5-5-5-5---|

G|--------------------------------------------------------------------|
D|--------------------------------------------------------------------|
A|--4-4-4-4-4-4-4-4-2-2-2-2-2-2-2-2-----------------------------------|
E|----------------------------------2-2-2-2-2-2-2-0-2-2-2-2-2-2-2-2---|

You keep playing the intro riff during the beginning of the fuzzy keyboard solo...

G|-------6-----4-6-6---------------------------||
D|---------4-6--------4--2----2--4----4--4--2--||
A|--4------------------------------------------||
E|---------------------------------------------||

First bridge
(This is where it is getting tricky to get to the other bridge so pay attention while 
listening the song and
you'll get it!)

G|-------------------------------------------------------------------||
D|-------------------------------------------------------------------||
A|----------------------------------4-4-4-4-x-4-4-4x4-4-4-4-x-4-4-4--||
E|--4-4-4-4-x-4-4-4-2-2-2-2-x-2-2-2----------------------------------||

Second bridge (slow part)

G|--------------------------------------------------------------|
D|--------------------------------------------------------------|
A|--4--4--2h4-4--4----------------------------------------------|
E|-----------------4--4--2h4-4--4-2--2-0h2-2--2--0-2--2-2-0--0--|

G|--------------------------------------------------------------|| This riff (last one) 
D|.-------------------------------------------------------------|| until the end
A|.-4--4--2h4-4--4----------------2--2-0h2-2--2-----------------||
E|-----------------4--4--2h4-4--4---------------2--2--0-0-2--2--||

The last bridge might be wrong a bit, but be indulgent: It's my first tab ever...

Enjoy playing this song!

| /  slide up
| \  slide down
| h  hammer-on
| p  pull-off
| ~  vibrato
| +  harmonic
| x  Mute note
===============================================================================

            
            
Suggest correction
Creating personal tab
Creating personal tab
You can edit any tab online and save it as your Personal.

You can edit, replace or remove any tab part or add personal notes – all changes will be seen only by you.

Personal tabs can be accessed anytime from any device, even offline.
Learn more »
Give kudos to tab author, rate the tab!
1 2 3 4 5
comments
print report bad tab
1 comment total.
0 reply
seanflood2012 66 Jul 29, 2013 01:08 PM

This tab is perfect, but it also sounds nice as

D|--4h6--

instead of

D|--4-6--

in the intro. Either way sounds fine though

guest
You may want to rate the tab now too:
select rating
Wanna post a correction for this tab? Suggest correction