Oops, an error
Loading. Please wait.

Fast Times In Tahoe tab

version 5
version 5

Whole song

Interactive

346 views 1 this week
1 commentread comment
1 2 3 4 5
3 more votes to show rating
add to favorites
×
Save as Personal and add changes to this tab that will be seen only by you. Learn more ›
×
You can save this tab as Personal to edit and correct it or add notes. All changes will be seen only by you. Learn more »
launch autoscroll
font size
0
reset
how to read this tab
guitar tuner
edit
Autoscroll
slow
fast
+/-
esc
set tempo
stop
Author
-------------------------------------------------------------------------------
                             FAST TIMES IN TAHOE - Elemeno P
-------------------------------------------------------------------------------
Tabbed by:Me!

Tuning: EADGBe

Intro:
Guitar 2:
e|-4---4---4-x-x-4---4-4/6---6---6-x-x-1---1-1/2---2---2-x-x-4---4-4-x-------|
B|-6---6---6-x-x-4---4-4/6---6---6-x-x-1---1-1/2---2---2-x-x-4---4-4-x-------|
G|-6---6---6-x-x-5---5-5/7---7---7-x-x-2---2-2/3---3---3-x-x-5---5-5-x-------|
D|-6---6---6-x-x-6---6-6/8---8---8-x-x-3---3-3/4---4---4-x-x-6---6-6-x-------|
A|-4---4---4-x-x-6---6-6/8---8---8-x-x-3---3-3/4---4---4-x-x-6---6-6-x-------|
E|-----------x-x-4---4-4/6---6---6-x-x-1---1-1/2---2---2-x-x-4---4-4-x-------|x4

Guitar 2:
e|-4-4-4---4-x-x-4---4-4/6---6---6-x-x-1---1-1/2---2---2-x-x-4---4-4-x-------|
B|-6-6-6---6-x-x-4---4-4/6---6---6-x-x-1---1-1/2---2---2-x-x-4---4-4-x-------|
G|-6-6-6---6-x-x-5---5-5/7---7---7-x-x-2---2-2/3---3---3-x-x-5---5-5-x-------|
D|-6-6-6---6-x-x-6---6-6/8---8---8-x-x-3---3-3/4---4---4-x-x-6---6-6-x-------|
A|-4-4-4---4-x-x-6---6-6/8---8---8-x-x-3---3-3/4---4---4-x-x-6---6-6-x-------|
E|-----------x-x-4---4-4/6---6---6-x-x-1---1-1/2---2---2-x-x-4---4-4-x-------|x1

Guitar 2:
e|-4---4---4-x-x-4---4-4/6---6---6-x-x-1---1-1/2---2---2-x-x-4---4-4-x-------|
B|-6---6---6-x-x-4---4-4/6---6---6-x-x-1---1-1/2---2---2-x-x-4---4-4-x-------|
G|-6---6---6-x-x-5---5-5/7---7---7-x-x-2---2-2/3---3---3-x-x-5---5-5-x-------|
D|-6---6---6-x-x-6---6-6/8---8---8-x-x-3---3-3/4---4---4-x-x-6---6-6-x-------|
A|-4---4---4-x-x-6---6-6/8---8---8-x-x-3---3-3/4---4---4-x-x-6---6-6-x-------|
E|-----------x-x-4---4-4/6---6---6-x-x-1---1-1/2---2---2-x-x-4---4-4-x-------|x2

Verse:
Guitar 1 & 2: (@0.57)
e|---------------------------------------------------------------------------|
B|---------------------------------------------------------------------------|
G|-6-6-6-6-------------------------------------------------------------------|
D|-6-6-6-6-6-6-6-6/8-8-8-8\3-3-3-3/4-4-4-4/6-6-6-6---------------------------|
A|-4-4-4-4-6-6-6-6/8-8-8-8\3-3-3-3/4-4-4-4/6-6-6-6---------------------------|
E|---------4-4-4-4/6-6-6-6\1-1-1-1/2-2-2-2/4-4-4-4---------------------------|x3

Guitar 1: (@1.21)
e|---------------------------------------------------------------------------|
B|---------------------------------------------------------------------------|
G|----------------------------------------6*---------------------------------|
D|---------------------------------------------------------------------------|
A|---------------------------------------------------------------------------|
E|---------------------------------------------------------------------------|
Guitar 2: (@1.21)
     PM___________________________________________
e|---------------------------------------------------------------------------|
B|---------------------------------------------------------------------------|
G|-6-------------------------------------------------------------------------|
D|-6-66666x------------------------------------------------------------------|
A|-4-44444xx666666xx444444xx333333xx444444xx666666---------------------------|
E|---------x444444xx222222xx111111xx222222xx444444---------------------------|

Guitar 1: (@1.29)
e|---------------------------------------------------------------------------|
B|----------------4---------------4---------------4--------------------------|
G|-6---6---6---6-6-6---6---6---6-6-6---6---6---6-6---------------------------|
D|---------------------------------------------------------------------------|
A|---------------------------------------------------------------------------|
E|---------------------------------------------------------------------------|
Guitar 2: (@1.29)
e|---------------------------------------------------------------------------|
B|---------------------------------------------------------------------------|
G|-6-6-6-6-------------------------------------------------------------------|
D|-6-6-6-6-6-6-6-6/8-8-8-8\3-3-3-3/4-4-4-4/6-6-6-6---------------------------|
A|-4-4-4-4-6-6-6-6/8-8-8-8\3-3-3-3/4-4-4-4/6-6-6-6---------------------------|
E|---------4-4-4-4/6-6-6-6\1-1-1-1/2-2-2-2/4-4-4-4---------------------------|

Chorus:
Guitar 1: (@1.38)
e|---------------------------------------------------------------------------|
B|---------------------------------------------------------------------------|
G|-6-------------------------------------------------------------------------|
D|---------------------------------------------------------------------------|
A|---------------------------------------------------------------------------|
E|---------------------------------------------------------------------------|
Guitar 2: (@1.38)
e|---------------------------------------------------------------------------|
B|---------------------------------------------------------------------------|
G|-6-6-6-6-------------------------------------------------------------------|
D|-6-6-6-6-6-6-6-6/8-8-8-8\3-3-3-3/4-4-4-4/6-6-6-6---------------------------|
A|-4-4-4-4-6-6-6-6/8-8-8-8\3-3-3-3/4-4-4-4/6-6-6-6---------------------------|
E|---------4-4-4-4/6-6-6-6\1-1-1-1/2-2-2-2/4-4-4-4---------------------------|

Guitar 1: (@1.45)
e|---------------------------------9*----------------------------------------|
B|---------------------------------------------------------------------------|
G|---------------------------------------------------------------------------|
D|---------------------------------------------------------------------------|
A|---------------------------------------------------------------------------|
E|---------------------------------------------------------------------------|
Guitar 2: (@1.45)
e|---------------------------------------------------------------------------|
B|---------------------------------------------------------------------------|
G|-6-6-6-6-------------------------------------------------------------------|
D|-6-6-6-6-6-6-6-6/8-8-8-8\3-3-3-3/4-4-4-4/6-6-6-6---------------------------|
A|-4-4-4-4-6-6-6-6/8-8-8-8\3-3-3-3/4-4-4-4/6-6-6-6---------------------------|
E|---------4-4-4-4/6-6-6-6\1-1-1-1/2-2-2-2/4-4-4-4---------------------------|

Solo:
Guitar 1: (@1.54)
e|-------------------------4---------------4---4-----------------------------|
B|---------6-7-6-4-----------7-6-4-6---6-----6---6---------------------------|
G|-6---6-----------6---6-----------------------------------------------------|
D|---------------------------------------------------------------------------|
A|---------------------------------------------------------------------------|
E|---------------------------------------------------------------------------|
Guitar 2: (@1.54)
e|---------------------------------------------------------------------------|
B|---------------------------------------------------------------------------|
G|-6-6-6-6-------------------------------------------------------------------|
D|-6-6-6-6-6-6-6-6/8-8-8-8\3-3-3-3/4-4-4-4/6-6-6-6---------------------------|
A|-4-4-4-4-6-6-6-6/8-8-8-8\3-3-3-3/4-4-4-4/6-6-6-6---------------------------|
E|---------4-4-4-4/6-6-6-6\1-1-1-1/2-2-2-2/4-4-4-4---------------------------|

Guitar 1: (@2.02)
e|-4---4---6-4-6-8-9---4---9bfr9-8-9-9---4---6---8---------------------------|
B|---------------------------------------------------------------------------|
G|---------------------------------------------------------------------------|
D|---------------------------------------------------------------------------|
A|---------------------------------------------------------------------------|
E|---------------------------------------------------------------------------|
Guitar 2: (@2.02)
e|---------------------------------------------------------------------------|
B|---------------------------------------------------------------------------|
G|-6-6-6-6-------------------------------------------------------------------|
D|-6-6-6-6-6-6-6-6/8-8-8-8\3-3-3-3/4-4-4-4/6-6-6-6---------------------------|
A|-4-4-4-4-6-6-6-6/8-8-8-8\3-3-3-3/4-4-4-4/6-6-6-6---------------------------|
E|---------4-4-4-4/6-6-6-6\1-1-1-1/2-2-2-2/4-4-4-4---------------------------|

Bridge:
Guitar 1: (@2.11)
e|-9-------------------------------------------------------------------------|
B|---------------------------------------------------------------------------|
G|---------------------------------------------------------------------------|
D|---------------------------------------------------------------------------|
A|---------------------------------------------------------------------------|
E|---------------------------------------------------------------------------|
Guitar 2: (@2.11)
e|---------------------------------------------------------------------------|
B|---------------------------------------------------------------------------|
G|-6-------------------------------------------------------------------------|
D|-6-------6-6-6-6/8-8-8-8\3-3-3-3/4-4-4-4/6-6-6-6---------------------------|
A|-4-------6-6-6-6/8-8-8-8\3-3-3-3/4-4-4-4/6-6-6-6---------------------------|
E|---------4-4-4-4/6-6-6-6\1-1-1-1/2-2-2-2/4-4-4-4---------------------------|

Guitar 1:
e|(9)\-----------------------------------------------------------------------|
B|---------------------------------------------------------------------------|
G|---------------------------------------------------------------------------|
D|---------------------------------------------------------------------------|
A|---------------------------------------------------------------------------|
E|---------------------------------------------------------------------------|
Guitar 2:
e|---------------------------------------------------------------------------|
B|---------------------------------------------------------------------------|
G|-6-6-6-6-------------------------------------------------------------------|
D|-6-6-6-6-6-6-6-6/8-8-8-8\3-3-3-3/4-4-4-4/6-6-xxxx--------------------------|
A|-4-4-4-4-6-6-6-6/8-8-8-8\3-3-3-3/4-4-4-4/6-6-xxxx--------------------------|
E|---------4-4-4-4/6-6-6-6\1-1-1-1/2-2-2-2/4-4-xxxx--------------------------|

Chorus:
Guitar 2:
e|---------------------------------------------------------------------------|
B|---------------------------------------------------------------------------|
G|-6-6-6-6-------------------------------------------------------------------|
D|-6-6-6-6-6-6-6-6/8-8-8-8\3-3-3-3/4-4-4-4/6-6-6-6---------------------------|
A|-4-4-4-4-6-6-6-6/8-8-8-8\3-3-3-3/4-4-4-4/6-6-6-6---------------------------|
E|---------4-4-4-4/6-6-6-6\1-1-1-1/2-2-2-2/4-4-4-4---------------------------|x2

Guitar 1:
e|---------------------------------------------------------------------------|
B|/9-------------9\6-------------6\2-------------2/--------------------------|
G|---------------------------------------------------------------------------|
D|---------------------------------------------------------------------------|
A|---------------------------------------------------------------------------|
E|---------------------------------------------------------------------------|
Guitar 2:
e|---------------------------------------------------------------------------|
B|---------------------------------------------------------------------------|
G|-6-6-6-6-------------------------------------------------------------------|
D|-6-6-6-6-6-6-6-6/8-8-8-8\3-3-3-3/4-4-4-4/6-6-6-6---------------------------|
A|-4-4-4-4-6-6-6-6/8-8-8-8\3-3-3-3/4-4-4-4/6-6-6-6---------------------------|
E|---------4-4-4-4/6-6-6-6\1-1-1-1/2-2-2-2/4-4-4-4---------------------------|x2

Outro:
Guitar 1:
e|---------------------------------------------------------------------------|
B|-9-------------------------------------------------------------------------|
G|---------------------------------------------------------------------------|
D|---------------------------------------------------------------------------|
A|---------------------------------------------------------------------------|
E|---------------------------------------------------------------------------|
Guitar 2:
e|---------------------------------------------------------------------------|
B|---------------------------------------------------------------------------|
G|-6-------------------------------------------------------------------------|
D|-6-------------------------------------------------------------------------|
A|-4-------------------------------------------------------------------------|
E|---------------------------------------------------------------------------|

            
            
Suggest correction
Creating personal tab
Creating personal tab
You can edit any tab online and save it as your Personal.

You can edit, replace or remove any tab part or add personal notes – all changes will be seen only by you.

Personal tabs can be accessed anytime from any device, even offline.
Learn more »
Give kudos to tab author, rate the tab!
1 2 3 4 5
comments
print report bad tab
1 comment total.
0 reply
realkiwi 30 Dec 17, 2008 03:52 PM

I forgot to put in the following:
* = Pinch harmonic
bfr = bend full release

guest
You may want to rate the tab now too:
select rating
Wanna post a correction for this tab? Suggest correction