Oops, an error
Loading. Please wait.

Killing Me intro tab

version 1
version 1

Intro

Interactive

2,579 views 1 this week
1 commentread comment
1 2 3 4 5
2 more votes to show rating
add to favorites
×
Save as Personal and add changes to this tab that will be seen only by you. Learn more ›
×
You can save this tab as Personal to edit and correct it or add notes. All changes will be seen only by you. Learn more »
launch autoscroll
font size
0
reset
how to read this tab
guitar tuner
edit
Autoscroll
slow
fast
+/-
esc
set tempo
stop
Difficulty
intermediate
I dont know if this is right but it sounds pretty good to me so try it out and if this 
work out then it should get you started.

key:
b=bend high
w=wammy bar

tuning: standard

|----9------7b------5---4-|
|2222-200200--------------|
|---------------2222-211--|
|-------------------------|
|-------------------------|
|-------------------------|

|----9------7b------5--44-|
|2222-200200--------------|
|---------------2222-21---|
|-------------------------|
|-------------------------|
|-------------------------|

            
            
Suggest correction
Creating personal tab
Creating personal tab
You can edit any tab online and save it as your Personal.

You can edit, replace or remove any tab part or add personal notes – all changes will be seen only by you.

Personal tabs can be accessed anytime from any device, even offline.
Learn more »
Give kudos to tab author, rate the tab!
1 2 3 4 5
comments
print report bad tab
1 comment total.
0 reply
ixcit3 10 May 22, 2014 08:52 AM

|----9------7b------5---4-|
|-------------------------|
|6666-644644----2222-211--|
|-------------------------|
|-------------------------|
|-------------------------|

easier

guest
Wanna post a correction for this tab? Suggest correction