Oops, an error
Loading. Please wait.

What Can I Do tab

version 1
version 1

Whole song

by Eleven
347 views 1 this week
1 commentread comment
1 2 3 4 5
3 more votes to show rating
add to favorites
×
Save as Personal and add changes to this tab that will be seen only by you. Learn more ›
×
You can save this tab as Personal to edit and correct it or add notes. All changes will be seen only by you. Learn more »
launch autoscroll
font size
0
reset
how to read this tab
guitar tuner
edit
Autoscroll
slow
fast
+/-
esc
set tempo
stop
hey there. the comment in the bottom is correct. i did, however, see a video of them playing this in drop D so now you have options! 

Tuning: Drop D


D        Am               G
see you crawl through the day

see you blocking your way

see you draining your fountain

see you run from the mountain

D       Am       G        Gm
try to open the door but what can I do?

try to clear where you stand but what can I do?
                                         E7                    A#
try to hold up the mirror but what can I do? you've been there before

               F                  Eb     D

you're destiny called  what can I do for you?


D|-6h8p6\5---------------------|
A|---------7-------------------|
F|-----------7-5---------------|
C|---------------8-7-5-h7p5\4--|
G|-----------------------------|
D|0~~~~~~~~~-------------------|


D     Am        E/G#     Gm
why hide your fear in your heart? 
why hold my tear in your cup?               
dont slap my hand away cause then 
F    E      D
what can I do for you?


D|-----------------|
A|------2----------|
F|----2---2--------|
C|--3-------3-0----|
G|-----------------|
D|--------------3--|


whoa oh oh
(verse rhythm)

I see you building a maze
I see you walk in a daze
I hear you shout when you're quiet
I see it all when you hide

Chorus

            
            
Suggest correction
Creating personal tab
Creating personal tab
You can edit any tab online and save it as your Personal.

You can edit, replace or remove any tab part or add personal notes – all changes will be seen only by you.

Personal tabs can be accessed anytime from any device, even offline.
Learn more »
Give kudos to tab author, rate the tab!
1 2 3 4 5
comments
print report bad tab
1 comment total.
0 reply
iaminthesea 32 Jun 09, 2014 06:13 PM

What Can I Do?

By Eleven, from the album Avantgardedog(2000)

Tabbed by IamInTheSea

Tuning: All strings one step down (DGDFAD)

[Chord symbols are presented as fingered on a detuned guitar, but of course sound 1 whole step lower.]

<<Please see notes on fingerings and voicing below.>>

Verse 1

E Bm A
See you crawl through the day

E Bm A (passing chord low G bent slightly then quickly A to E)
See you blocking your way

E Bm A
See you draining your fountain

E Bm A
See you run from the mountain

PreChorus

E Bm A Am
Try to open the door but what can I do?

E Bm A Am
Try to clear where you stand but what can I do?

E Bm A Am
Try to hold up the mirror but what can I do?

F#7 C
You've been there before

G Fmaj7b5 E

Your destiny called what can I do for you?

F# G Fmaj7b5 E
what can I do for you?

^ h p p ^ ^ ^ ^ ^ h p p sl
D|----8-10-8-7----------------------------|
A|-------------9--------------------------|
F|----------------9-7---------------------|
C|--------------------10-9-10-9-7-6-------|
G|----------------------------------------|
D|0~~~~~~~~~------------------------------|

Chorus

E Bm Bbm#5 Am6
Why hide your fear in your heart?

E Bm Bbm#5 Am6
Why hold my tear in your cup?

E Bm Bbm#5 Am6 G6 F#m6 E
Don't slap my hand away cause then what can I do?

u u u p ^ ^ ^ ^
D|--------------------------------------|
A|--------4--0--------------------------|
F|-----0--------0-----------------------|
C|-----------------1--------------------|
G|---2----------------2-----------------|
D|-----------------------3--------------|

E Bm A
Whoa oh oh

E Bm A
Whoa oh oh

Verse 2

E Bm A
I see you building a maze

GTR 2 - Distorted w Octave Pedal:
u u u
D|---14(15)-14(15)(14)--12--------------|
A|--------------------------------------|
F|--------------------------\9~~--------|
C|--------------------------------------|
G|--------------------------\7~~--------|
D|--------------------------------------|

E Bm A (passing chord low G bent slightly then quickly A to E)
I see you walk in a daze

GTR 2 - Distorted w Octave Pedal:
u u u
D|---14(15)-14(15)(14)--12--------------|
A|--------------------------------------|
F|--------------------------12~~--------|
C|--------------------------------------|
G|--------------------------------------|
D|--------------------------------------|

E Bm A (passing chord low G bent slightly then quickly A to E)
I hear you shout when you're quiet

GTR 2 - Distorted w Octave Pedal:
u u u
D|---14(15)-14(15)(14)--12--------------|
A|--------------------------------------|
F|--------------------------12~~--------|
C|--------------------------------------|
G|--------------------------------------|
D|--------------------------------------|

E Bm A (passing chord low G bent slightly then quickly A to E)
I see it all when you hide it

GTR 2 - Distorted w Octave Pedal:
u u u
D|---14(15)-14(15)(14)--12--------------|
A|--------------------------------------|
F|--------------------------12~~--------|
C|--------------------------------------|
G|--------------------------------------|
D|--------------------------------------|

Pre Chorus 2

E Bm A Am
Try to open the door but what can I do?

GTR 2 - Distorted wChorus(Let Ring Throughout):

D|---12------12------10-----10------9------9------8------8------------|
A|-------12------12-----12------12-----10-----10-----10-----10--------|
F|--------------------------------------------------------------------|
C|--------------------------------------------------------------------|
G|--------------------------------------------------------------------|
D|--------------------------------------------------------------------|

E Bm A Am
Try to clear where you stand but what can I do?

GTR 2 - Distorted wChorus(Let Ring Throughout):

D|---12------12------10-----10------9------9------8------8------------|
A|-------12------12-----12------12-----10-----10-----10-----10--------|
F|--------------------------------------------------------------------|
C|--------------------------------------------------------------------|
G|--------------------------------------------------------------------|
D|--------------------------------------------------------------------|

E Bm A Am
Try to hold up the mirror but what can I do?

GTR 2 - Distorted wChorus(Let Ring Throughout):

D|---12------12------10-----10------9------9------8------8------------|
A|-------12------12-----12------12-----10-----10-----10----

guest
You may want to rate the tab now too:
select rating
Wanna post a correction for this tab? Suggest correction