Oops, an error
Loading. Please wait.

Youre Not Alone tab

version 2
version 2

Whole song

by Eleven
293 views 1 this week
no commentswrite comment
1 2 3 4 5
1 last vote to show rating
add to favorites
×
Save as Personal and add changes to this tab that will be seen only by you. Learn more ›
×
You can save this tab as Personal to edit and correct it or add notes. All changes will be seen only by you. Learn more »
launch autoscroll
font size
0
reset
how to read this tab
guitar tuner
edit
Autoscroll
slow
fast
+/-
esc
set tempo
stop
From 2000's "Avantgardedog". This isn't a note for note, but it's enough to play it by 
and have it sound good.

verse

d|---4-3--2h3p2p0-----------------------------|
A|----------------1---------------------------|
F|-----------------2--------------------------|
C|--------------------6--6-6-7-9--------------|
G|-4~~~-4-3~~~--------7----------7--7-7-9-10--|
D|--------------------0~~~-------0~~~---------|

                               You Eat the Fruit
d|---4-3--2h3p2p0-----------------------------|
A|----------------1---------------------------|
F|-----------------2--------------------------|
C|--------------------6-----------------------|
G|-4~~~-4-3~~~--------7-----------------------|
D|--------------------0~~~--------------------|

                         You Live the Lie~~~
d|---4-3--2h3p2p0-----------------------------|
A|----------------1---------------------------|
F|-----------------2--------------------------|
C|--------------------6--6-6-7-9--------------|
G|-4~~~-4-3~~~--------7----------7--7-7-9-10--|
D|--------------------0~~~-------0~~~---------|

     You Live the Lie
d|---4-3--2h3p2p0-----------------------------|
A|----------------1---------------------------|
F|-----------------2--------------------------|
C|--------------------6--6-6-7-9--------------|
G|-4~~~-4-3~~~--------7----------7--7-7-9-10--|
D|--------------------0~~~-------0~~~---------|

That pattern of vocals over the rhythm remains the same until the chorus, I'm going to 
to the end of the verse where the change comes in.

     Or Lose the World
d|---4-3--2h3p2p0---------------------------------|
A|----------------1-------------------------------|
F|-----------------2------------------------------|
C|--------------------5v-5v/9v-9v/13v-13v/16v-16v-|
G|-4~~~-4-3~~~--------7~~~------------------------|
D|--------------------0~~~------------------------|

Chorus
(he is doing something on the guitar over the chords but I can't really make them out 
to tab them, but it sounds fairly simple)

A#         Dm               E
  Today is not what you thought
       A        A#        F      A
  So what you know, you're not alone
A#        Dm        E
 And in a gift of a chance
    A        A#        F     A
 A life awaits, You're not alone
A#      F     A
 You're not alone

Bridge:
this part comes right after the second verse

A#     G#       G
 Are You the Fruit?
     F       Eb   Eb7
 Are You the Lie?
A#  G#      G
 A blink in time
      F     Eb   Eb7
 An endless high
A#      G#    G
 The lower depth
      F      Eb   Eb7
 The higher ground

(the solo is a bit out of my league)

2nd chorus is the same but a little longer

outro
d|---4-3--2h3p2p0------------------|
A|-----------------1---------------|
F|--------------------2------------|
C|-----------------------6---------|
G|-4~~~-4-3~~~-----------7---------|
D|----------------------(0)~~~-----|


You eat the fruit
  You live the lie
A blink in time
An endless high
Embrace it all or lose the world

Today is not what you thought
So what you know, you're not alone
And in a gift of a chance
A life awaits
You're not alone
You're not alone

The moldy bread
The silver cup
The lower depth
The higher ground
Embrace it all or lose the world

Are you the fruit
Are you the lie
A blink in time
An endless high
Today is not what you thought

  So what you know, you're not alone
And in a gift of a chance A life awaits
You're not alone
You're not alone

            
            
Suggest correction
Creating personal tab
Creating personal tab
You can edit any tab online and save it as your Personal.

You can edit, replace or remove any tab part or add personal notes – all changes will be seen only by you.

Personal tabs can be accessed anytime from any device, even offline.
Learn more »
Give kudos to tab author, rate the tab!
1 2 3 4 5
comments
print report bad tab
guest
You may want to rate the tab now too:
select rating
Wanna post a correction for this tab? Suggest correction