Oops, an error
Loading. Please wait.

Guns N Horses tab

25,272 views 1 this week
1 commentread comment
1 2 3 4 5
x 12
add to favorites
×
Save as Personal and add changes to this tab that will be seen only by you. Learn more ›
×
You can save this tab as Personal to edit and correct it or add notes. All changes will be seen only by you. Learn more »
launch autoscroll
font size
0
reset
how to read this tab
guitar tuner
edit
Autoscroll
slow
fast
+/-
esc
set tempo
stop
Ellie Goulding

Guns and Horses

Strumming pattern can be figured out

[Intro/Verse]

E|--0-------0-------|
B|--8-------8-------|
G|--9-------0-------|
D|--10------9-------|
A|--0-------10------|
E|----------0-------|

" left my house..."

[Bridge]

E|-0----3----0----|
B|-1----0----0----|
G|-0----0----0----|
D|-2----0----0----|
A|-3----2----4----|
E|------3----5----|

[Chorus/outro]

E|-----------------|--0---0---0---0---|
B|-----------------|--0---0---0---0---|
G|-----------------|--0---0---11--0---|
D|-----------------|--10--12--12--12--|
A|-----------------|--7---12--10--12--|
E|-0-0-0-0-0-------|--8---10---0--10--|

             OR

E|-----------------|--0---0---0---0---|
B|-----------------|--0---0---0---0---|
G|-----------------|--9---14--11--14--|
D|-----------------|--10--12--12--12--|
A|-----------------|--7---12--10--12--|
E|-0-0-0-0-0-------|--8---10---0--10--|

The first one is right but the second sounds nice too


[Breakdown]

E|--0----0----0----|--0----0----0----|
B|--1----3----1----|--1----3----0----|
G|--0----0----2----|--0----0----0----|
D|--2----4----2----|--2----4----2----|
A|--3----5----0----|--3----5----2----|
E|-----------------|------------0----|

Verse
Bridge
Chorus
Verse
Bridge
Chorus
Breakdown
Chorus/outro

It's all in there, just needs to be figured out.  This is based on an acoustic version
I saw, not the album version, haven't heard the album version in a while so not sure how 
it fits in.

            
            
Suggest correction
Creating personal tab
Creating personal tab
You can edit any tab online and save it as your Personal.

You can edit, replace or remove any tab part or add personal notes – all changes will be seen only by you.

Personal tabs can be accessed anytime from any device, even offline.
Learn more »
comments
print report bad tab
1 comment total.
+3 reply
campbell829@hot 10 Jun 24, 2010 10:23 AM

I wrote this tab and made a mistake. Should be:

E|--------------|--0--0---0----0-|
B|--------------|--0--0---0----0-|
G|--------------|--0--0---11---0-|
D|--------------|--10-12--12---12|
A|--------------|--7--12--10---12|
E|-0-0-0-0-0----|--8--10--0----10|

guest
Wanna post a correction for this tab? Suggest correction