Oops, an error
Loading. Please wait.

Electric High tab

version 2
version 2

Whole song

Interactive

4,860 views 1 this week
1 commentread comment
1 2 3 4 5
x 5
add to favorites
×
Save as Personal and add changes to this tab that will be seen only by you. Learn more ›
×
You can save this tab as Personal to edit and correct it or add notes. All changes will be seen only by you. Learn more »
launch autoscroll
font size
0
reset
how to read this tab
guitar tuner
edit
Autoscroll
slow
fast
+/-
esc
set tempo
stop
Author
                                Electric High                                   


                                                                    Elliot Minor
Alex Davies

GUITAR 1

Intro :

E||--12--10-------------------------|--12--10-------------------------|
B||----------10--12--12br(13)10--8--|----------10--12--12br----10--8--|
G||---------------------------------|---------------------------------|
D||---------------------------------|---------------------------------|
A||---------------------------------|---------------------------------|
E||---------------------------------|---------------------------------|


--12--10-------------------------|--12--10-------------------------|
----------10--12--12br----10--8--|----------10--12--12br----10--8--|
---------------------------------|---------------------------------|
---------------------------------|---------------------------------|
---------------------------------|---------------------------------|
---------------------------------|---------------------------------|
   
--12--10-------------------------|--12--10-------------------------|
----------10--12--12br----10--8--|----------10--12--12br----10--8--|
---------------------------------|---------------------------------|
---------------------------------|---------------------------------|
---------------------------------|---------------------------------|
---------------------------------|---------------------------------|
        
--10------10------10------10------|--13------13------15------15------|-----|
------10------10------10------10--|------13------13------15------15--|-----|
----------------------------------|----------------------------------|-----|
----------------------------------|----------------------------------|-----|
----------------------------------|----------------------------------|-----|
----------------------------------|----------------------------------|-----|


                                          Pre-Chorus :
 
-----|-----|-----|-----|-----|-----|-----|-------5---------5----|
-----|-----|-----|-----|-----|-----|-----|-------6---------6----|
-----|-----|-----|-----|-----|-----|-----|--7----7----7----7----|
-----|-----|-----|-----|-----|-----|-----|--7----7----7----7----|
-----|-----|-----|-----|-----|-----|-----|--5----5----5----5----|
-----|-----|-----|-----|-----|-----|-----|----------------------|

 
-------5---------3----|-------5---------5----|--------------------------|
-------5---------3----|-------6---------6----|--------------------------|
-------5---------4----|--7----7----7----7----|--------------------4--4--|
--7----7----5----5----|--7----7----7----7----|--------------5--5--5--5--|
--7----7----5----5----|--5----5----5----5----|--5--5--5--5--5--5--5--5--|
--5----5----3----3----|----------------------|--3--3--3--3--3--3--3--3--|


Chorus :

--------------------------|--------------------------|
--------------------------|--------------------------|
--------------------------|--5--5--5--5--7--7--7--7--|
--7--7--7--7--3--3--3--3--|--5--5--5--5--7--7--7--7--|
--7--7--7--7--3--3--3--3--|--3--3--3--3--5--5--5--5--|
--5--5--5--5--1--1--1--1--|--------------------------|

  
--------------------------|-----------------------------|
--------------------------|-----------------------------|
--------------------------|--7--7--7--x-x-x-x-7--7--x-x-|
--7--7--7--7--5--5--5--5--|--7--7--7--x-x-x-x-7--7--x-x-|
--7--7--7--7--5--5--5--5--|--5--5--5--x-x-x-x-5--5--x-x-|
--5--5--5--5--3--3--3--3--|-----------------------------|


--------------------------|--------------------------|
--------------------------|--------------------------|
--------------4----4--4-4-|--5----5--5-5-------------|
--7----7--7-7-5----5--5-5-|--5----5--5-5-3----3--3-3-|
--7----7--7-7-2----2--2-2-|--3----3--3-3-3----3--3-3-|
--5----5--5-5-------------|--------------1----1--1-1-|


---------------------------|------------------------------------|
---------------------------|------------------------------------|
--7--7--7--7--7--7--7--x-x-|--10--10--10---x--x-12--12--12--12--|
--7--7--7--7--7--7--7--x-x-|--10--10--10---x--x-12--12--12--12--|
--5--5--5--5--5--5--5--x-x-|---8---8---8---x--x-10--10--10--10--|
---------------------------|------------------------------------|

Break :

--12--10-------------------------|--12--10-------------------------|x2
----------10--12--12br----10--8--|----------10--12--12br----10--8--|
---------------------------------|---------------------------------|
---------------------------------|---------------------------------|
---------------------------------|---------------------------------|
---------------------------------|---------------------------------|

pre-chorus 
chorus

break/solo
  
|--12--10-------------------------|
|----------10--12--12br----10--8--|
|---------------------------------|
|---------------------------------|
|---------------------------------|
|---------------------------------|
 
--12--10-------------------------|--17--15------15--------------15--|
----------10--12--12br----10--8--|----------17------17--15--13------|
---------------------------------|----------------------------------|
---------------------------------|----------------------------------|
---------------------------------|----------------------------------|
---------------------------------|----------------------------------|
                             
--14----------------|--13----------------|-------------------|
--------------------|--------------------|-------------------|
--------------------|--------------------|-------------------|
--------------------|--------------------|-------------------|
--------------------|--------------------|-------------------|
--------------------|--------------------|-------------------|

pre-chorus :

--------------------------|--------------------------|
--------------------------|--------------------------|
--------------------------|--------------------4--4--|
--------------------------|--------------5--5--5--5--|
--3--3--3--3--3--3--3--3--|--5--5--5--5--5--5--5--5--|
--1--1--1--1--1--1--1--1--|--3--3--3--3--3--3--3--3--|
 
--------------------------|--------------------------|
--------------------------|--------------------------|
--------------------------|--5--5--5--5--7--7--7--7--|
--7--7--7--7--3--3--3--3--|--5--5--5--5--7--7--7--7--|
--7--7--7--7--3--3--3--3--|--3--3--3--3--5--5--5--5--|
--5--5--5--5--1--1--1--1--|--------------------------|

--------------------------|-----------------------------|
--------------------------|-----------------------------|
--------------------------|--7--7--7--x-x-x-x-7--7--x-x-|
--7--7--7--7--5--5--5--5--|--7--7--7--x-x-x-x-7--7--x-x-|
--7--7--7--7--5--5--5--5--|--5--5--5--x-x-x-x-5--5--x-x-|
--5--5--5--5--3--3--3--3--|-----------------------------|

--------------------------|--------------------------|
--------------------------|--------------------------|
--------------4----4--4-4-|--5----5--5-5-------------|
--7----7--7-7-5----5--5-5-|--5----5--5-5-3----3--3-3-|
--7----7--7-7-2----2--2-2-|--3----3--3-3-3----3--3-3-|
--5----5--5-5-------------|--------------1----1--1-1-|


---------------------------|------------------------------------|
---------------------------|------------------------------------|
--7--7--7--7--7--7--7--x-x-|--10--10--10---x--x-12--12--12--12--|
--7--7--7--7--7--7--7--x-x-|--10--10--10---x--x-12--12--12--12--|
--5--5--5--5--5--5--5--x-x-|---8---8---8---x--x-10--10--10--10--|
---------------------------|------------------------------------|

--------------------------|--------------------------|
--------------------------|--------------------------|
--------------------------|--5--5--5--5--7--7--7--7--|
--7--7--7--7--3--3--3--3--|--5--5--5--5--7--7--7--7--|
--7--7--7--7--3--3--3--3--|--3--3--3--3--5--5--5--5--|
--5--5--5--5--1--1--1--1--|--------------------------|


--------------------------|-----------------------------|
--------------------------|-----------------------------|
--------------------------|--7--7--7--x-x-x-x-7--7--x-x-|
--7--7--7--7--5--5--5--5--|--7--7--7--x-x-x-x-7--7--x-x-|
--7--7--7--7--5--5--5--5--|--5--5--5--x-x-x-x-5--5--x-x-|
--5--5--5--5--3--3--3--3--|-----------------------------|

 
--------------------------|--------------------------|
--------------------------|--------------------------|
--------------4----4--4-4-|--5----5--5-5-------------|
--7----7--7-7-5----5--5-5-|--5----5--5-5-3----3--3-3-|
--7----7--7-7-2----2--2-2-|--3----3--3-3-3----3--3-3-|
--5----5--5-5-------------|--------------1----1--1-1-|


---------------------------|------------------------------------|
---------------------------|------------------------------------|
--7--7--7--7--7--7--7--x-x-|--10--10--10---x--x-12--12--12--12--|
--7--7--7--7--7--7--7--x-x-|--10--10--10---x--x-12--12--12--12--|
--5--5--5--5--5--5--5--x-x-|---8---8---8---x--x-10--10--10--10--|
---------------------------|------------------------------------|


---------------------------|------------------------------------|
---------------------------|------------------------------------|
--7--7--7--7--7--7--7--x-x-|--10--10--10---x--x-12--12--12--12--|
--7--7--7--7--7--7--7--x-x-|--10--10--10---x--x-12--12--12--12--|
--5--5--5--5--5--5--5--x-x-|---8---8---8---x--x-10--10--10--10--|
---------------------------|------------------------------------|

           
-------------------|-------------------||
-------------------|-------------------||
-------------------|-------------------||
--7----------------|--L----------------||
--7----------------|--L----------------||
--5----------------|--L----------------||

GUITAR 2

E||-------|-------|-------|-------------------------|--------------------------|
B||-------|-------|-------|-----------------x-x-x-x-|--------------------------|
G||-------|-------|-------|-----------------x-x-x-x-|--------------4----4--4-4-|
D||-------|-------|-------|-----------------x-x-x-x-|--7----7--7-7-5----5--5-5-|
A||-------|-------|-------|-----------------x-x-x-x-|--7----7--7-7-2----2--2-2-|
E||-------|-------|-------|-------------------------|--5----5--5-5-------------|


  Q    E  S S Q    E  S S    E  E  E  E  E  E  E  S S  
--------------------------|---------------------------|
--------------------------|---------------------------|
--5----5--5-5-------------|--7--7--7--7--7--7--7--x-x-|
--5----5--5-5-3----3--3-3-|--7--7--7--7--7--7--7--x-x-|
--3----3--3-3-3----3--3-3-|--5--5--5--5--5--5--5--x-x-|
--------------1----1--1-1-|---------------------------|


   E   E   E   E   E   E   E   E     E  E  E  E  E  E  E  E   
----------------------------------|--------------------------|
----------------------------------|--------------------------|
--10--10--10--10--12--12--12--12--|--2--2--2--2--2--2--2--2--|
--10--10--10--10--12--12--12--12--|--------------------------|
---8---8---8---8--10--10--10--10--|--------------------------|
----------------------------------|--------------------------|


  E  E  E  E  E  E  E  E     E  E  E  E  E  E  E  E   
--------------------------|--------------------------|
--------------------------|--------------------------|
--2--2--2--2--2--2--2--2--|--9--9--9--9--9--9--9--9--|
--------------------------|--------------------------|
--------------------------|--------------------------|
--------------------------|--------------------------|


  E  E  E  E  E  E  E  E     E  E  E  E  E  E  E  E   
--------------------------|--------------------------|
--------------------------|--------------------------|
--4--4--4--4--4--4--4--4--|--2--2--2--2--2--2--2--2--|
--------------------------|--------------------------|
--------------------------|--------------------------|
--------------------------|--------------------------|


  E  E  E  E  E  E  E  E     E  E  E  E  E  E  E  E   
--------------------------|--------------------------|
--------------------------|--------------------------|
--2--2--2--2--2--2--2--2--|--9--9--9--9--9--9--9--9--|
--------------------------|--------------------------|
--------------------------|--------------------------|
--------------------------|--------------------------|


  E  E  E  E  E  E  E  E     E  E  E  S S S S E  E  E   
--------------------------|--5-----5----x-5-x-x--5-----|
--------------------------|--6-----6----x-6-x-x--6-----|
--4--4--4--4--4--4--4--4--|--7-----7----x-7-x-x--7-----|
--------------------------|----------------------------|
--------------------------|----------------------------|
--------------------------|----------------------------|


  E  E  E  S S S S E  E  E     Q    E  S S S S E  E  E   
--5-----5----x-3-x-3--3-----|--5----5----x-5-x-x--5-----|
--5-----5----x-3-x-3--3-----|--6----6----x-6-x-x--6-----|
--5-----5----x-4-x-4--4-----|--7----7----x-7-x-x--7-----|
----------------------------|---------------------------|
----------------------------|---------------------------|
----------------------------|---------------------------|


  PM PM PM PM                                             
  E  E  E  E  S S S S S S S S    E  E  E  E  E  E  E  E   
------------------------------|--------------------------|
--------------x-x-x-x-x-x-x-x-|--------------------------|
--------------x-x-x-x-x-x-x-x-|--------------------------|
--------------x-x-x-x-x-x-x-x-|--7--7--7--7--3--3--3--3--|
--5--5--5--5--x-x-x-x-x-x-x-x-|--7--7--7--7--3--3--3--3--|
--3--3--3--3------------------|--5--5--5--5--1--1--1--1--|


  E  E  E  E  E  E  E  E     E  E  E  E  E  E  E  E   
--------------------------|--------------------------|
--------------------------|--------------------------|
--5--5--5--5--7--7--7--7--|--------------------------|
--5--5--5--5--7--7--7--7--|--7--7--7--7--5--5--5--5--|
--3--3--3--3--5--5--5--5--|--7--7--7--7--5--5--5--5--|
--------------------------|--5--5--5--5--3--3--3--3--|


  E  E  E  S S S S E  E  S S    Q    E  S S Q    E  S S  
-----------------------------|--------------------------|
-----------------------------|--------------------------|
--7--7--7--x-x-x-x-7--7--x-x-|--------------4----4--4-4-|
--7--7--7--x-x-x-x-7--7--x-x-|--7----7--7-7-5----5--5-5-|
--5--5--5--x-x-x-x-5--5--x-x-|--7----7--7-7-2----2--2-2-|
-----------------------------|--5----5--5-5-------------|


  Q    E  S S Q    E  S S    E  E  E  E  E  E  E  S S  
--------------------------|---------------------------|
--------------------------|---------------------------|
--5----5--5-5-------------|--7--7--7--7--7--7--7--x-x-|
--5----5--5-5-3----3--3-3-|--7--7--7--7--7--7--7--x-x-|
--3----3--3-3-3----3--3-3-|--5--5--5--5--5--5--5--x-x-|
--------------1----1--1-1-|---------------------------|


   E   E   E   E   E   E   E   E     Q    E  S S Q    E  S S  
----------------------------------|--------------------------|
----------------------------------|--------------------------|
--10--10--10--10--12--12--12--12--|--------------------------|
--10--10--10--10--12--12--12--12--|--7----7--7-7-3----3--3-3-|
---8---8---8---8--10--10--10--10--|--7----7--7-7-3----3--3-3-|
----------------------------------|--5----5--5-5-1----1--1-1-|


  Q    E  S S Q    E  S S    Q    E  S S Q    E  S S  
--------------------------|--------------------------|
--------------------------|--------------------------|
--5----5--5-5-7----7--7-7-|--------------------------|
--5----5--5-5-7----7--7-7-|--7----7--7-7-3----3--3-3-|
--3----3--3-3-5----5--5-5-|--7----7--7-7-3----3--3-3-|
--------------------------|--5----5--5-5-1----1--1-1-|


  Q    E  S S Q    E  S S    E  E  E  E  E  E  E  E   
--------------------------|--------------------------|
--------------------------|--------------------------|
--5----5--5-5-7----7--7-7-|--2--2--2--2--2--2--2--2--|
--5----5--5-5-7----7--7-7-|--------------------------|
--3----3--3-3-5----5--5-5-|--------------------------|
--------------------------|--------------------------|


  E  E  E  E  E  E  E  E     E  E  E  E  E  E  E  E   
--------------------------|--------------------------|
--------------------------|--------------------------|
--2--2--2--2--2--2--2--2--|--9--9--9--9--9--9--9--9--|
--------------------------|--------------------------|
--------------------------|--------------------------|
--------------------------|--------------------------|


  E  E  E  E  E  E  E  E     E  E  E  E  E  E  E  E   
--------------------------|--------------------------|
--------------------------|--------------------------|
--4--4--4--4--4--4--4--4--|--2--2--2--2--2--2--2--2--|
--------------------------|--------------------------|
--------------------------|--------------------------|
--------------------------|--------------------------|


  E  E  E  E  E  E  E  E     E  E  E  E  E  E  E  E   
--------------------------|--------------------------|
--------------------------|--------------------------|
--2--2--2--2--2--2--2--2--|--9--9--9--9--9--9--9--9--|
--------------------------|--------------------------|
--------------------------|--------------------------|
--------------------------|--------------------------|


  E  E  E  E  E  E  E  E     E  E  E  Q    E  E  E     E  E  E  E  E  E  E  E   
--------------------------|-------------------------|--------------------------|
--------------------------|--------5--6-------------|--------------------------|
--4--4--4--4--4--4--4--4--|-------------------------|--------------------------|
--------------------------|-----7-------------7-----|--------7-----------5-----|
--------------------------|--5-------------5-----5--|-----7-----7-----5-----5--|
--------------------------|-------------------------|--5-----------3-----------|


  E  E  E  Q    E  E  E     E  E  E  E  E  E  E  E     E  E  E  Q    E  E  E   
-------------------------|--------------------------|-------------------------|
--------5--6-------------|--------------------------|--------5--6-------------|
-------------------------|--------------------------|-------------------------|
-----7-------------7-----|--------7-----------5-----|-----7-------------7-----|
--5-------------5-----5--|-----7-----7-----5-----5--|--5-------------5-----5--|
-------------------------|--5-----------3-----------|-------------------------|


                             PM PM PM PM PM PM PM PM  
  E  E  E  E  E  E  E  E     E  E  E  E  E  E  E  E   
--------------------------|--------------------------|
--------------------------|--------------------------|
--------------------------|--------------------------|
--------7-----------5-----|--------------------------|
-----7-----7-----5-----5--|--3--3--3--3--3--3--3--3--|
--5-----------3-----------|--1--1--1--1--1--1--1--1--|


  PM PM PM PM                                         
  E  E  E  E  E  E  E  E     E  E  E  E  E  E  E  E   
--------------------------|--------------------------|
--------------------------|--------------------------|
--------------------4--4--|--------------------------|
--------------5--5--5--5--|--7--7--7--7--3--3--3--3--|
--5--5--5--5--5--5--5--5--|--7--7--7--7--3--3--3--3--|
--3--3--3--3--3--3--3--3--|--5--5--5--5--1--1--1--1--|


  E  E  E  E  E  E  E  E     E  E  E  E  E  E  E  E   
--------------------------|--------------------------|
--------------------------|--------------------------|
--5--5--5--5--7--7--7--7--|--------------------------|
--5--5--5--5--7--7--7--7--|--7--7--7--7--5--5--5--5--|
--3--3--3--3--5--5--5--5--|--7--7--7--7--5--5--5--5--|
--------------------------|--5--5--5--5--3--3--3--3--|


  E  E  E  S S S S E  E  S S    Q    E  S S Q    E  S S  
-----------------------------|--------------------------|
-----------------------------|--------------------------|
--7--7--7--x-x-x-x-7--7--x-x-|--------------4----4--4-4-|
--7--7--7--x-x-x-x-7--7--x-x-|--7----7--7-7-5----5--5-5-|
--5--5--5--x-x-x-x-5--5--x-x-|--7----7--7-7-2----2--2-2-|
-----------------------------|--5----5--5-5-------------|


  Q    E  S S Q    E  S S    E  E  E  E  E  E  E  S S  
--------------------------|---------------------------|
--------------------------|---------------------------|
--5----5--5-5-------------|--7--7--7--7--7--7--7--x-x-|
--5----5--5-5-3----3--3-3-|--7--7--7--7--7--7--7--x-x-|
--3----3--3-3-3----3--3-3-|--5--5--5--5--5--5--5--x-x-|
--------------1----1--1-1-|---------------------------|


   E   E   E   S  S  E   E   E   E     Q    E  S S Q    E  S S  
------------------------------------|--------------------------|
------------------------------------|--------------------------|
--10--10--10---x--x-12--12--12--12--|--------------------------|
--10--10--10---x--x-12--12--12--12--|--7----7--7-7-3----3--3-3-|
---8---8---8---x--x-10--10--10--10--|--7----7--7-7-3----3--3-3-|
------------------------------------|--5----5--5-5-1----1--1-1-|


  Q    E  S S Q    E  S S    Q    E  S S Q    E  S S    W                 
--------------------------|--------------------------|-------------------|
--------------------------|--------------------------|-------------------|
--5----5--5-5-7----7--7-7-|--------------------------|--7----------------|
--5----5--5-5-7----7--7-7-|--7----7--7-7-5----5--5-5-|--7----------------|
--3----3--3-3-5----5--5-5-|--7----7--7-7-5----5--5-5-|--5----------------|
--------------------------|--5----5--5-5-3----3--3-3-|-------------------|


  E  E  E  Q    E  E  E     E  E  E  E  E  E  E  E     E  E  E  Q    E  E  E   
-------------------------|--------------------------|-------------------------|
--------5--6-------------|--------------------------|--------5--6-------------|
-------------------------|--------------------------|-------------------------|
-----7-------------7-----|--------7-----------5-----|-----7-------------7-----|
--5-------------5-----5--|-----7-----7-----5-----5--|--5-------------5-----5--|
-------------------------|--5-----------3-----------|-------------------------|


  E  E  E  E  E  E  E  E     E  E  E  Q    E  E  E     E  E  E  E  E  E  E  E   
--------------------------|-------------------------|--------------------------|
--------------------------|--------5--6-------------|--------------------------|
--------------------------|-------------------------|--------------------------|
--------7-----------5-----|-----7-------------7-----|--------7-----------5-----|
-----7-----7-----5-----5--|--5-------------5-----5--|-----7-----7-----5-----5--|
--5-----------3-----------|-------------------------|--5-----------3-----------|


  PM PM PM PM PM PM PM PM    PM PM PM PM              
  E  E  E  E  E  E  E  E     E  E  E  E  E  E  E  E   
--------------------------|--------------------------|
--------------------------|--------------------------|
--------------------------|--------------------4--4--|
--------------------------|--------------5--5--5--5--|
--3--3--3--3--3--3--3--3--|--5--5--5--5--5--5--5--5--|
--1--1--1--1--1--1--1--1--|--3--3--3--3--3--3--3--3--|


  E  E  E  E  E  E  E  E     E  E  E  E  E  E  E  E   
--------------------------|--------------------------|
--------------------------|--------------------------|
--------------------------|--5--5--5--5--7--7--7--7--|
--7--7--7--7--3--3--3--3--|--5--5--5--5--7--7--7--7--|
--7--7--7--7--3--3--3--3--|--3--3--3--3--5--5--5--5--|
--5--5--5--5--1--1--1--1--|--------------------------|


  E  E  E  E  E  E  E  E     E  E  E  S S S S E  E  S S  
--------------------------|-----------------------------|
--------------------------|-----------------------------|
--------------------------|--7--7--7--x-x-x-x-7--7--x-x-|
--7--7--7--7--5--5--5--5--|--7--7--7--x-x-x-x-7--7--x-x-|
--7--7--7--7--5--5--5--5--|--5--5--5--x-x-x-x-5--5--x-x-|
--5--5--5--5--3--3--3--3--|-----------------------------|


  Q    E  S S Q    E  S S    Q    E  S S Q    E  S S  
--------------------------|--------------------------|
--------------------------|--------------------------|
--------------4----4--4-4-|--5----5--5-5-------------|
--7----7--7-7-5----5--5-5-|--5----5--5-5-3----3--3-3-|
--7----7--7-7-2----2--2-2-|--3----3--3-3-3----3--3-3-|
--5----5--5-5-------------|--------------1----1--1-1-|


  E  E  E  E  E  E  E  S S     E   E   E   S  S  E   E   E   E   
---------------------------|------------------------------------|
---------------------------|------------------------------------|
--7--7--7--7--7--7--7--x-x-|--10--10--10---x--x-12--12--12--12--|
--7--7--7--7--7--7--7--x-x-|--10--10--10---x--x-12--12--12--12--|
--5--5--5--5--5--5--5--x-x-|---8---8---8---x--x-10--10--10--10--|
---------------------------|------------------------------------|


  E  E  E  E  E  E  E  E     E  E  E  E  E  E  E  E   
--------------------------|--------------------------|
--------------------------|--------------------------|
--------------------------|--5--5--5--5--7--7--7--7--|
--7--7--7--7--3--3--3--3--|--5--5--5--5--7--7--7--7--|
--7--7--7--7--3--3--3--3--|--3--3--3--3--5--5--5--5--|
--5--5--5--5--1--1--1--1--|--------------------------|


  E  E  E  E  E  E  E  E     E  E  E  S S S S E  E  S S  
--------------------------|-----------------------------|
--------------------------|-----------------------------|
--------------------------|--7--7--7--x-x-x-x-7--7--x-x-|
--7--7--7--7--5--5--5--5--|--7--7--7--x-x-x-x-7--7--x-x-|
--7--7--7--7--5--5--5--5--|--5--5--5--x-x-x-x-5--5--x-x-|
--5--5--5--5--3--3--3--3--|-----------------------------|


  Q    E  S S Q    E  S S    Q    E  S S Q    E  S S  
--------------------------|--------------------------|
--------------------------|--------------------------|
--------------4----4--4-4-|--5----5--5-5-------------|
--7----7--7-7-5----5--5-5-|--5----5--5-5-3----3--3-3-|
--7----7--7-7-2----2--2-2-|--3----3--3-3-3----3--3-3-|
--5----5--5-5-------------|--------------1----1--1-1-|


   E   E   E   E   E   E   E   E      E   E   E   E   E   E   E   E   
--10--10--10--10--10--10--10--10--|--13--13--13--13--13--13--13--13--|
----------------------------------|----------------------------------|
----------------------------------|----------------------------------|
----------------------------------|----------------------------------|
----------------------------------|----------------------------------|
----------------------------------|----------------------------------|


   E   E   E   E   E   E   E   E   
--14--14--14--14--14--14--14--14--|
----------------------------------|
----------------------------------|
----------------------------------|
----------------------------------|
----------------------------------|


   S  S  S  S  S  S  S  S  S  S  S  S  S  S  S  S     W                 
--13-13-13-13-13-13-13-13-19-19-19-19-19-19-19-19-|--20----------------|
--------------------------20-20-20-20-20-20-20-20-|--------------------|
--------------------------------------------------|--------------------|
--------------------------------------------------|---7----------------|
--------------------------------------------------|---7----------------|
--------------------------------------------------|---5----------------|



Duration Legend
---------------
W - whole
H - half
Q - quarter
E - 8th
S - 16th
T - 32nd
X - 64th
. - note dotted
|-n-|  - n-tuplets


Tablature Legend
----------------
L - tied note
x - dead note
g - grace note
(n) - ghost note
> - accentuded note
NH - natural harmonic
AH - artificial harmonic
TH - tapped harmonic
SH - semi harmonic
PH - pitch harmonic
h - hammer on
p - pull off
b - bend
br - bendRelease
pb - preBend
pbr - preBendRelease
brb - bendReleaseBend
\n/ - tremolo bar dip
\n - tremolo bar dive
-/n - tremolo bar Release up
/n\ - tremolo bar inverted dip
/n - tremolo bar return
-\n - tremolo bar Release down
S - shift slide
s - legato slide
/ -  slide into from below or out of upwards
\ -  slide into from above or out of downwards
~ - vibrato
W - wide vibrato
tr - trill
TP - tremolo picking
T - tapping
S - slap
P - pop
< - fade in
^ - brush up
v - brush down

            
            
Suggest correction
Creating personal tab
Creating personal tab
You can edit any tab online and save it as your Personal.

You can edit, replace or remove any tab part or add personal notes – all changes will be seen only by you.

Personal tabs can be accessed anytime from any device, even offline.
Learn more »
comments
print report bad tab
1 comment total.
+1 reply
Hendrezzo 10 Apr 07, 2010 02:48 PM

surely that 8 on the B string would be easier played as a 12 on the G? That's how I do it anyway, just easier (:

other than that I like this tab, very accurate, thanks! (:

guest
You may want to rate the tab now too:
select rating
Wanna post a correction for this tab? Suggest correction