Oops, an error
Loading. Please wait.

Last Call To Nyc tab

version 1
version 1

Whole song

975 views 1 this week
no commentswrite comment
1 2 3 4 5
2 more votes to show rating
add to favorites
×
Save as Personal and add changes to this tab that will be seen only by you. Learn more ›
×
You can save this tab as Personal to edit and correct it or add notes. All changes will be seen only by you. Learn more »
launch autoscroll
font size
0
reset
how to read this tab
guitar tuner
edit
Autoscroll
slow
fast
+/-
esc
set tempo
stop
Author
Song: Last Call To New York City
Band: Elliot Minor
Album: Elliot Minor

Key:

*:- Palm mute
x:- String mute
~:- Let ring
h:- Hammer on

Gtr I: Alex Davies: Standard Tuning (e,B,G,D,A,E)
Gtr II: Ed Minton: Standard Tuning (e,B,G,D,A,E)

Intro:

Gtr II

e:|---------------------------------|
B:|---------------------------------|
G:|-9-9-9-9-9-9-9-9-9-9-9-9-9-9-9-9-|
D:|-9-9-9-9-9-9-9-9-9-9-9-9-9-9-9-9-|
A:|-7-7-7-7-7-7-7-7-7-7-7-7-7-7-7-7-|
E:|---------------------------------|

Intro Solo:

Gtr I

e:|--------------------------------------------------------------|
B:|-7h9-7h9--7h9-7h9--9-7-7--9-7~--7h9-7h9--7h9-7h9--9-10--9-10~-|
G:|-8h9-8h9--8h9-8h9--9-8-8--9-8~--8h9-8h9--8h9-8h9--9-9---9-9~~-|
D:|--------------------------------------------------------------|
A:|--------------------------------------------------------------|
E:|--------------------------------------------------------------|

e:|-----------------------------------------------------------------|
B:|-7h9-7h9--7h9-7h9--9-7-7~-------7h9-7h9--7h9-7h9--9-10~~-9p7-9p7-|
G:|-8h9-8h9--8h9-8h9---------9-8~--8h9-8h9--8h9-8h9--9-9~~~---------|
D:|-----------------------------------------------------------------|
A:|-----------------------------------------------------------------|
E:|-----------------------------------------------------------------|

Gtr II

e:|-----------------------------------------------------------------|
B:|-----------------------------------------------------------------|
G:|-----------------4-4-4-4-4-4-4-4-6-6-6-6-6-6-6-6-----------------|
D:|-2-2-2-2-2-2-2-2-4-4-4-4-4-4-4-4-6-6-6-6-6-6-6-6-7-7-7-7-7-7-7-7-|
A:|-2-2-2-2-2-2-2-2-2-2-2-2-2-2-2-2-4-4-4-4-4-4-4-4-7-7-7-7-7-7-7-7-|
E:|-0-0-0-0-0-0-0-0---------------------------------5-5-5-5-5-5-5-5-|

e:|-----------------------------------------------------------------|
B:|-----------------------------------------------------------------|
G:|-----------------4-4-4-4---------6-6-6-6-6-6-6-6-----------------|
D:|-2-2-2-2-2-2-2-2-4-4-4-4-6-6-6-6-6-6-6-6-6-6-6-6-7-7-7-7-7-7-7-7-|
A:|-2-2-2-2-2-2-2-2-2-2-2-2-6-6-6-6-4-4-4-4-4-4-4-4-7-7-7-7-7-7-7-7-|
E:|-0-0-0-0-0-0-0-0---------4-4-4-4-----------------5-5-5-5-5-5-5-5-|

Verse I:

Gtr II (x2) 

(Don't have the strumming pattern, but here are the chords)

e:|---|---|---|---|
B:|-9-|-5-|-2-|-4-|
G:|-9-|-6-|-2-|-4-|
D:|-9-|-6-|-4-|-4-|
A:|-7-|-4-|-4-|-2-|
E:|---|---|---|---|

Gtr I (This comes in on the second repeat of Gtr II)

e:|-0-0-0-0-0-0-0-0-0-0-0-0-0-0-0-0-0-0-0-0-0-0-0-0-0-0-0-0-0-0-0-0-|
B:|-5-5-5-5-5-5-5-5-4-4-4-4-4-4-4-4-5-5-5-5-5-5-5-5-4-4-4-4-4-4-4-4-|
G:|-4-4-4-4-4-4-4-4-4-4-4-4-4-4-4-4-4-4-4-4-4-4-4-4-4-4-4-4-4-4-4-4-|
D:|-----------------------------------------------------------------|
A:|-----------------------------------------------------------------|
E:|-----------------------------------------------------------------|

Pre-Chorus I:

Gtr I

e:|---------------------------------------------|
B:|---------------------------------------------|
G:|---------------------------------------------|
D:|-6-6-6~~~~--4-4-4~~~~------------------------|
A:|-4-4-4~~~~--2-2-2~~~~--2-2-2---7-7-7---7-7-7-|
E:|-----------------------0-0-0---4-4-4---5-5-5-|
PM                        * * *   * * *   * * *

e:|----------------------|
B:|----------------------|
G:|----------------------|
D:|-6-6-6~~~~--4-4-4~~~~-|
A:|-4-4-4~~~~--2-2-2~~~~-|
E:|----------------------|

Gtr II

e:|-----------------------------------------|
B:|-----------------------------------------|
G:|-9----9----9----9----9----9----9----9----|
D:|---11---11---11---11---11---11---11---11-|
A:|-----------------------------------------|
E:|-----------------------------------------|

e:|-------------------------------------------------|
B:|-------------------------------------------------|
G:|-9---9---9---9---9---9---9---9---9---9---9---9---|
D:|---9---9---9---9---9---9---9---9-----------------|
A:|-----------------------------------7---7---7---7-|
E:|-------------------------------------------------|

e:|-------------------------------------------------|
B:|-------------------------------------------------|
G:|-9---9---9---9---9---9---9---9---9---9---9---9---|
D:|---6---6---6---6---7---7---7---7---7---7---7---7-|
A:|-------------------------------------------------|
E:|-------------------------------------------------|

e:|-----------------------------------------------------------|
B:|-----------------------------------------------------------|
G:|-9----9----9----9----9----9----9----9----9---9---9---9---9-|
D:|---11---11---11---11---11---11---11---11---9---9---9---9---|
A:|-----------------------------------------------------------|
E:|-----------------------------------------------------------|


Chorus I:

Gtr I

e:|-----------------------------------------------------------------|
B:|-----------------------------------------------------------------|
G:|-----------------4-4-4-4-4-4-4-4-6-6-6-6-6-6-6-6-----------------|
D:|-2-2-2-2-2-2-2-2-4-4-4-4-4-4-4-4-6-6-6-6-6-6-6-6-7-7-7-7-7-7-7-7-|
A:|-2-2-2-2-2-2-2-2-2-2-2-2-2-2-2-2-4-4-4-4-4-4-4-4-7-7-7-7-7-7-7-7-|
E:|-0-0-0-0-0-0-0-0---------------------------------5-5-5-5-4-4-4-4-|

e:|-----------------------------------------------------------------|
B:|-----------------------------------------------------------------|
G:|-----------------4-4-4-4-4-4-4-4-9-9-9-9-9-9-9-9-----------------|
D:|-4-4-4-4-4-4-4-4-4-4-4-4-4-4-4-4-9-9-9-9-9-9-9-9-7-7-7-7-7-7-7-7-|
A:|-4-4-4-4-4-4-4-4-2-2-2-2-2-2-2-2-7-7-7-7-7-7-7-7-7-7-7-7-7-7-7-7-|
E:|-2-2-2-2-2-2-2-2---------------------------------5-5-5-5-4-4-4-4-|


Gtr II

e:|-----------------------------------------------------------------|
B:|-----------------------------------------------------------------|
G:|-----------------4-4-4-4-4-4-4-4-6-6-6-6-6-6-6-6-----------------|
D:|-2-2-2-2-2-2-2-2-4-4-4-4-4-4-4-4-6-6-6-6-6-6-6-6-7-7-7-7-7-7-7-7-|
A:|-2-2-2-2-2-2-2-2-2-2-2-2-2-2-2-2-4-4-4-4-4-4-4-4-7-7-7-7-7-7-7-7-|
E:|-0-0-0-0-0-0-0-0---------------------------------5-5-5-5-4-4-4-4-|

e:|-----------------------------------------------------------------|
B:|-----------------------------------------------------------------|
G:|-----------------4-4-4-4-4-4-4-4---------------------------------|
D:|-4-4-4-4-4-4-4-4-4-4-4-4-4-4-4-4-2-2-2-2-2-2-2-2-7-7-7-7-7-7-7-7-|
A:|-4-4-4-4-4-4-4-4-2-2-2-2-2-2-2-2-2-2-2-2-2-2-2-2-7-7-7-7-7-7-7-7-|
E:|-2-2-2-2-2-2-2-2-----------------0-0-0-0-0-0-0-0-5-5-5-5-4-4-4-4-|


After Chorus:

Both Gtrs

e:|---------------------|
B:|---------------------|
G:|-----------4~~~~~~~~-|
D:|-4~~~~~~~~-4~~~~~~~~-|
A:|-4~~~~~~~~-2~~~~~~~~-|
E:|-2~~~~~~~~-----------|

Pre Verse:

Gtr I

e:|---------------------------------|
B:|---------------------------------|
G:|---------------------------------|
D:|-2-2-2-2-2-2-2-2-2-2-2-2-2-2-2-2-|
A:|-2-2-2-2-2-2-2-2-2-2-2-2-2-2-2-2-|
E:|-0-0-0-0-0-0-0-0-0-0-0-0-0-0-0-0-|
PM  * * * * * * * *

Gtr II

e:|---------------------------------|
B:|---------------------------------|
G:|-9-9-9-9-9-9-9-9-9-9-9-9-9-9-9-9-|
D:|-9-9-9-9-9-9-9-9-9-9-9-9-9-9-9-9-|
A:|-7-7-7-7-7-7-7-7-7-7-7-7-7-7-7-7-|
E:|---------------------------------|

Verse II:

Gtr II

e:|-----------------0-------------------------------0---------------|
B:|-------------------0-------------------------------0-------------|
G:|---------1-----------1-------1-----------1-----------1-------1---|
D:|-----2-----2---2-------2---2---2-----2-----2---2-------2---2---2-|
A:|---2---2-----2-----------2---------2---2-----2-----------2-------|
E:|-0-------------------------------0-------------------------------|

e:|---------------------------------|
B:|---------5---------------5-------|
G:|-----6-----6---6-----6-----6---6-|
D:|---6---6-----6-----6---6-----6---|
A:|-4---------------4---------------|
E:|---------------------------------|

Both Gtr's

e:|-----------------------|
B:|-----------------------|
G:|-4-4--4-4--4-4--4-4--4-|
D:|-4-4--4-4--4-4--4-4--4-|
A:|-2-2--2-2--2-2--2-2--2-|
E:|-----------------------|

e:|----------------------------------------------------|
B:|----------------------------------------------------|
G:|-------------------------------------4-4--4-4--4-4~-|
D:|-2-2--2-2--2-2--2-2--2--4-4--4-4--4--4-4--4-4--4-4~-|
A:|-2-2--2-2--2-2--2-2--2--4-4--4-4--4--2-2--2-2--2-2~-|
E:|-0-0--0-0--0-0--0-0--0--2-2--2-2--2-----------------|

Pre-Chorus II:

Gtr II

e:|-----0---0-----------0---0-----------0---0-----------0---0-------|
B:|---5---5---5---5---5---5---5---5---5---5---5---5---5---5---5---0-|
G:|-6-----------6---6-----------6---4-----------4---4-----------4---|
D:|-----------------------------------------------------------------|
A:|-----------------------------------------------------------------|
E:|-----------------------------------------------------------------|

e:|-----0-------0-------0-------0-------5-------5-------5-------5---|
B:|---5---5---5---5---5---5---5---5---5---5---5---5---5---5---5---5-|
G:|-----------------------------------------------------------------|
D:|-----------------6-------6-------7-------7-------7-------7-------|
A:|-7-------7-------------------------------------------------------|
E:|-----------------------------------------------------------------|

e:|-----0-------0-------0-------0-------0-------0-------0-------0---|
B:|---5---5---5---5---5---5---5---5---5---5---5---5---5---5---5---5-|
G:|---------------------------------4-------4-------4-------4-------|
D:|-4-------4-------4-------4---------------------------------------|
A:|-----------------------------------------------------------------|
E:|-----------------------------------------------------------------|

Both Gtrs

e:|-----------------------------------|
B:|-----------------------------------|
G:|-----------------------------------|
D:|---------------------7-7-----9~~~~-|
A:|-6-6-6-6-6-6-6-6-7-7-7-7-7-7-9~~~~-|
E:|-4-4-4-4-4-4-4-4-5-5-5-5-5-5-7~~~~-|
PM  * * * * * * * * * *     * *

Chorus II:

Gtr I

e:|-----------------------------------------------------------------|
B:|-----------------------------------------------------------------|
G:|-----------------4-4-4-4-4-4-4-4-6-6-6-6-6-6-6-6-----------------|
D:|-2-2-2-2-2-2-2-2-4-4-4-4-4-4-4-4-6-6-6-6-6-6-6-6-7-7-7-7-7-7-7-7-|
A:|-2-2-2-2-2-2-2-2-2-2-2-2-2-2-2-2-4-4-4-4-4-4-4-4-7-7-7-7-7-7-7-7-|
E:|-0-0-0-0-0-0-0-0---------------------------------5-5-5-5-4-4-4-4-|

e:|-----------------------------------------------------------------|
B:|-----------------------------------------------------------------|
G:|-----------------4-4-4-4-5-5-5-5-6-6-6-6-6-6-6-6-----------------|
D:|-4-4-4-4-4-4-4-4-4-4-4-4-x-x-x-x-6-6-6-6-6-6-6-6-4-4-4-4-4-4-4-4-|
A:|-4-4-4-4-4-4-4-4-2-2-2-2-3-3-3-3-4-4-4-4-4-4-4-4-4-4-4-4-4-4-4-4-|
E:|-2-2-2-2-2-2-2-2---------------------------------2-2-2-2-2-2-2-2-|

Gtr II

e:|-----------------------------------------------------------------|
B:|-----------------------------------------------------------------|
G:|-----------------4-4-4-4-4-4-4-4-6-6-6-6-6-6-6-6-----------------|
D:|-2-2-2-2-2-2-2-2-4-4-4-4-4-4-4-4-6-6-6-6-6-6-6-6-7-7-7-7-7-7-7-7-|
A:|-2-2-2-2-2-2-2-2-2-2-2-2-2-2-2-2-4-4-4-4-4-4-4-4-7-7-7-7-7-7-7-7-|
E:|-0-0-0-0-0-0-0-0---------------------------------5-5-5-5-4-4-4-4-|

e:|-----------------------------------------------------------------|
B:|-----------------------------------------------------------------|
G:|-----------------4-4-4-4---------6-6-6-6-6-6-6-6-----------------|
D:|-4-4-4-4-4-4-4-4-4-4-4-4-6-6-6-6-6-6-6-6-6-6-6-6-4-4-4-4-4-4-4-4-|
A:|-4-4-4-4-4-4-4-4-2-2-2-2-6-6-6-6-4-4-4-4-4-4-4-4-4-4-4-4-4-4-4-4-|
E:|-2-2-2-2-2-2-2-2---------4-4-4-4-----------------2-2-2-2-2-2-2-2-|


After Chorus:

Both Gtrs

e:|-----------------------------|
B:|-----------------------------|
G:|-2~~~~~~~~-4~~~~~~~~-x-x-x-x-|
D:|-2~~~~~~~~-4~~~~~~~~-x-x-x-x-|
A:|-0~~~~~~~~-2~~~~~~~~-x-x-x-x-|
E:|-----------------------------|


Bridge:

For this just repeat Chorus I, the strumming changes slightly but I'm sure you can figure it out.


Pre-Chorus III:

Gtr II

e:|----------------|
B:|-5~~~~----4~~~~-|
G:|-6~~~~----4~~~~-|
D:|-6~~~~----4~~~~-|
A:|-4~~~~----2~~~~-|
E:|----------------|

Both Gtrs

e:|---------------------------------------------------|
B:|---------------------------------------------------|
G:|---------------------------------------------------|
D:|-2-2-2----7-7-7------------------------------------|
A:|-2-2-2----7-7-7----7-7-7-7-7-7-7-7-4-4-4-4-4-4-4-4-|
E:|-0-0-0----4-4-4----5-5-5-5-4-4-4-4-2-2-2-2-2-2-2-2-|
PM                    * * * * * * * * * * * * * * * *

Gtr I

e:|---------------------------------------------------------|
B:|---------------------------------------------------------|
G:|---------------------------------------------------------|
D:|-4-4-4-4-4-4-4-4---------------------7-7---------9-----9-|
A:|-2-2-2-2-2-2-2-2-6-6-6-6-6-6-6-6-7-7-7-7-7-7-9-9-9-9-9-9-|
E:|-----------------4-4-4-4-4-4-4-4-5-5-5-5-5-5-7-7-7-7-7-7-|
PM  * * * * * * * * * * * * * * * * * *     * * * *   * *

Gtr II

e:|---------------------------------------------------------------|
B:|---------------------------------------------------------------|
G:|---------------------------------------------------------------|
D:|-4-4-4-4-4-4-4-4---------------------7-7-----------------------|
A:|-2-2-2-2-2-2-2-2-6-6-6-6-6-6-6-6-7-7-7-7-7-7-------------------|
E:|-----------------4-4-4-4-4-4-4-4-5-5-5-5-5-5-///Pick-Scrape\\\-|
PM  * * * * * * * * * * * * * * * * * *     * * 

Chorus III:

Gtr I

e:|---------------------------------------------------------------|
B:|---------------------------------------------------------------|
G:|-----------------4-4-4-4-4-4-4-4-6-6-6-6-6-6-6-6---------------|
D:|-2-2-2-2-2-2-2-2-4-4-4-4-4-4-4-4-6-6-6-6-6-6-6-6-7-------7-7-7-|
A:|-2-2-2-2-2-2-2-2-2-2-2-2-2-2-2-2-4-4-4-4-4-4-4-4-7-------7-7-7-|
E:|-0-0-0-0-0-0-0-0---------------------------------5-------4-4-4-|
PM                                                          * * *

e:|-----------------------------------------------------------------|
B:|-----------------------------------------------------------------|
G:|-----------------4-4-4-4-5-5-5-5-6-6-6-6-6-6-6-6-----------------|
D:|-4-4-4-4-4-4-4-4-4-4-4-4-x-x-x-x-6-6-6-6-6-6-6-6-4-4-4-4-4-4-4-4-|
A:|-4-4-4-4-4-4-4-4-2-2-2-2-3-3-3-3-4-4-4-4-4-4-4-4-4-4-4-4-4-4-4-4-|
E:|-2-2-2-2-2-2-2-2---------------------------------2-2-2-2-2-2-2-2-|

Gtr II

e:|---------------------------------------------------------------|
B:|---------------------------------------------------------------|
G:|-----------------4-4-4-4-4-4-4-4-6-6-6-6-6-6-6-6---------------|
D:|-2-2-2-2-2-2-2-2-4-4-4-4-4-4-4-4-6-6-6-6-6-6-6-6-7-------7-7-7-|
A:|-2-2-2-2-2-2-2-2-2-2-2-2-2-2-2-2-4-4-4-4-4-4-4-4-7-------7-7-7-|
E:|-0-0-0-0-0-0-0-0---------------------------------5-------4-4-4-|
PM                                                          * * *

e:|-----------------------------------------------------------------|
B:|-----------------------------------------------------------------|
G:|-----------------4-4-4-4---------6-6-6-6-6-6-6-6-----------------|
D:|-4-4-4-4-4-4-4-4-4-4-4-4-6-6-6-6-6-6-6-6-6-6-6-6-4-4-4-4-4-4-4-4-|
A:|-4-4-4-4-4-4-4-4-2-2-2-2-6-6-6-6-4-4-4-4-4-4-4-4-4-4-4-4-4-4-4-4-|
E:|-2-2-2-2-2-2-2-2---------4-4-4-4-----------------2-2-2-2-2-2-2-2-|


After Chorus:

Both Gtrs

e:|---------------------|
B:|---------------------|
G:|-2~~~~~~~~-4~~~~~~~~-|
D:|-2~~~~~~~~-4~~~~~~~~-|
A:|-0~~~~~~~~-2~~~~~~~~-|
E:|---------------------|


Build Up:

Both Gtrs

e:|---------------------------------------------------------|
B:|---------------------------------------------------------|
G:|---------------------------------------------------------|
D:|-2-2--2-2--2-2--2-2--2-2-2-2-3-3--3-3--3-3--3-3--3-3-3-3-|
A:|-2-2--2-2--2-2--2-2--2-2-2-2-3-3--3-3--3-3--3-3--3-3-3-3-|
E:|-0-0--0-0--0-0--0-0--0-0-0-0-1-1--1-1--1-1--1-1--1-1-1-1-|
PM  * *  * *  * *  * *  * * * * * *  * *  * *  * *  * * * *


Final Chorus/Key Change:

Gtr I

e:|-----------------------------------------------------------------|
B:|-----------------------------------------------------------------|
G:|-----------------6-6-6-6-6-6-6-6-7-7-7-7-7-7-7-7-----------------|
D:|-3-3-3-3-3-3-3-3-6-6-6-6-6-6-6-6-7-7-7-7-7-7-7-7-8-8-8-8-8-8-8-8-|
A:|-3-3-3-3-3-3-3-3-4-4-4-4-4-4-4-4-5-5-5-5-5-5-5-5-8-8-8-8-8-8-8-8-|
E:|-1-1-1-1-1-1-1-1---------------------------------6-6-6-6-5-5-5-5-|

e:|-------------------------------------------------------------------|
B:|-------------------------------------------------------------------|
G:|-----------------5-5-5-5-6-6-6-6/7-7-7-7/9-9/1010/1212121212121212-|
D:|-5-5-5-5-5-5-5-5-5-5-5-5-x-x-x-x-x-x-x-x-x-x--x-x--x-x-x-x-x-x-x-x-|
A:|-5-5-5-5-5-5-5-5-3-3-3-3-4-4-4-4/5-5-5-5/7-7/-8-8/1010101010101010-|
E:|-3-3-3-3-3-3-3-3---------------------------------------------------|

Gtr II

e:|-----------------------------------------------------------------|
B:|-----------------------------------------------------------------|
G:|-----------------6-6-6-6-6-6-6-6-7-7-7-7-7-7-7-7-----------------|
D:|-3-3-3-3-3-3-3-3-6-6-6-6-6-6-6-6-7-7-7-7-7-7-7-7-8-8-8-8-8-8-8-8-|
A:|-3-3-3-3-3-3-3-3-4-4-4-4-4-4-4-4-5-5-5-5-5-5-5-5-8-8-8-8-8-8-8-8-|
E:|-1-1-1-1-1-1-1-1---------------------------------6-6-6-6-5-5-5-5-|

e:|-----------------------------------------------------------------|
B:|-----------------------------------------------------------------|
G:|-----------------5-5-5-5---------7-7-7-7-7-7-7-7-----------------|
D:|-5-5-5-5-5-5-5-5-5-5-5-5-7-7-7-7-7-7-7-7-7-7-7-7-5-5-5-5-5-5-5-5-|
A:|-5-5-5-5-5-5-5-5-3-3-3-3-7-7-7-7-5-5-5-5-5-5-5-5-5-5-5-5-5-5-5-5-|
E:|-3-3-3-3-3-3-3-3---------5-5-5-5-----------------3-3-3-3-3-3-3-3-|

End with:

Gtr I

e:|------------|
B:|------------|
G:|-10~~~~~~~~-|
D:|--x---------|
A:|--8~~~~~~~~-|
E:|------------|

Gtr II

e:|-------------1~~~~-|
B:|-3~~~~-5~~~~-1~~~~-|
G:|-3~~~~-5~~~~-2~~~~-|
D:|-3~~~~-5~~~~-3~~~~-|
A:|-1~~~~-3~~~~-3~~~~-|
E:|-------------1~~~~-|

            
            
Suggest correction
Creating personal tab
Creating personal tab
You can edit any tab online and save it as your Personal.

You can edit, replace or remove any tab part or add personal notes – all changes will be seen only by you.

Personal tabs can be accessed anytime from any device, even offline.
Learn more »
Give kudos to tab author, rate the tab!
1 2 3 4 5
comments
print report bad tab
guest
You may want to rate the tab now too:
select rating
Wanna post a correction for this tab? Suggest correction