Oops, an error
Loading. Please wait.

Eiffel Tower Blue chords

22 views 1 this week
no commentswrite comment
1 2 3 4 5
3 more votes to show rating
add to favorites
×
Save as Personal and add changes to this tab that will be seen only by you. Learn more ›
×
You can save this tab as Personal to edit and correct it or add notes. All changes will be seen only by you. Learn more »
launch autoscroll
font size
0
reset
transpose
0
reset
display chords
guitar tuner
edit
Autoscroll
slow
fast
+/-
esc
set tempo
stop
Strumming
There is no strumming pattern for this song yet. and get +5 IQ
Song:           Eiffel Tower Blue
Artist:         Elliott Murphy
Album:          Soul Surfing (2002)
Tabbed by:      Javier de la Fuente
Capo 1st

[Intro]
        Am                           Am             Am
e|--0--------------------------------------0----------------0-----------------||
B|----3--1--0---------------------------------3--1--0-----------3--1--0-------||
G|-------------2--0------------------------------------2-----------------2----||
D|-------------------2--0-----------------------------------------------------|| 
A|-------------------------3--2--0----0---------------------------------------||
D|---------------------------------3------------------------------------------||

[Verse]
Am
I'm a man on a mission, to be kissing you
Dm                                         Am
I need a section of protection, to keep me safe all the way through
         E                                      Am
I'm a stranger in a strange land, Eiffel Tower blue

[Verse]
Am
Policy of avoidance, avoiding the truth
Dm                               Am
While my pockets full up I see change is running loose
E                                     Am
Travel on a euro train, Eiffel Tower blue

[Chorus]
Dm                                Am
Do you know what I'm asking I got no trick questions for you
Dm                    Am
Such a touchy subject will you let me touch you
  E                                       Am
Cross the language barrier, Eiffel Tower blue

[Interlude]
        Am                           Am   
e|--0--------------------------------------0--------------||
B|----3--1--0---------------------------------3--1--0-----||
G|-------------2--0------------------------------------2--||
D|-------------------2--0---------------------------------|| 
A|-------------------------3--2--0----0-------------------||
D|---------------------------------3----------------------||
Am        Dm    Am    E    Am    Am 

[Verse]
Am
Do you know the hour I haven't the slightest clue
Dm                                          Am
I know I'm living on borrowed time and some day I'll pay it back to you
           E                       Am
You're my banker and my account is due
                 E                           Am
Still I want to thank you for doing what you do
             E                       Am
I'd like to paint you, Eiffel Tower Blue

[Outro]
        Am                           Am   
e|--0--------------------------------------||
B|----3--1--0------------------------------||
G|-------------2--0------------------------||
D|-------------------2--0------------------|| 
A|-------------------------3--2--0----0----||
D|---------------------------------3-------||
Am        Dm    Am    E    Am 
Am        Dm    Am    E    Am 
Am        Dm    Am    E    Am 
e|--0--------------------------------------||
B|----3--1--0------------------------------||
G|-------------2--0------------------------||
D|-------------------2--0------------------|| 
A|-------------------------3--2--0----0----||
D|---------------------------------3-------||

            
            
Suggest correction
Creating personal tab
Creating personal tab
You can edit any tab online and save it as your Personal.

You can edit, replace or remove any tab part or add personal notes – all changes will be seen only by you.

Personal tabs can be accessed anytime from any device, even offline.
Learn more »
Give kudos to tab author, rate the tab!
1 2 3 4 5
comments
print report bad tab
guest
You may want to rate the tab now too:
select rating
Wanna post a correction for this tab? Suggest correction