Oops, an error
Loading. Please wait.

The Price I Pay chords

25 views 1 this week
no commentswrite comment
1 2 3 4 5
3 more votes to show rating
add to favorites
×
Save as Personal and add changes to this tab that will be seen only by you. Learn more ›
×
You can save this tab as Personal to edit and correct it or add notes. All changes will be seen only by you. Learn more »
launch autoscroll
font size
0
reset
transpose
0
reset
simplify chords
display chords
guitar tuner
edit
Autoscroll
slow
fast
+/-
esc
set tempo
stop
Strumming
There is no strumming pattern for this song yet. and get +5 IQ
Song:           The Price I Pay
Artist:         Elliott Murphy
Album:          12 (1990)
Tabbed by:      Javier de la Fuente

[Intro]
   E E E E
e---------------|
B-------------1-|
G------------1--|
D-----------2---|
A----------2----|
E---------------|

[Verse]
                A                             E  
Well I've been staring at this lightbulb for over a week
    F#m                     D
My eyes are burning and my legs are weak
                A          E             F#m    E
But that's the price I pay, for being a loner
              A                             E  
Well I could make a call tomorrow, say that I'm coming home
F#m                          D
I'm sorry baby I don't know who to phone
                A          E             F#m    E
But that's the price I pay, for being a loser

[Chorus]
A                            C#
Each night I'm dreaming, the sheets soaking wet
D                              Dm
Faces from the past, that I'd rather forget
A                    C#
I dream of Elvis, I dream of King Kong
D                              Dm
I gets more exagerated, the further I get along
                A          E             F#m    E
But that's the price I pay, for my imagination

[Interlude]
          A A A A         A7 A7 A7 A7            D D D D         E E E E
e-----------------------------------------------------------------------------|
B---------------------------------------------------------------------------1-|
G--------------------------------------------------------------------------1--|
D-------------------------------------------------------------------------2---|
A-----2-0-------------2-0-------------------2-0----------------2---------2----|
E-0-2-------------0-2-------------------0-2----------------0-2----------------|

[Verse]
        A                            E  
I been staring at strange women who I'll never meet
   F#m                            D
Undress them in my mind, from my head to their feet
                A          E           F#m    E
And that's the price I pay, for my obession
              A                             E  
Well you can get it if you want it, you can make it if you try
F#m                                       D
You can climb up any mountain, if you're not afraid to die
                A              E            F#m    
Or that's the price you'll pay, for your anxiety
                A          E         F#m    
And that's the price I pay, for my notoriety
                A          E         F#m    E
And that's the price I pay, for my humanity

[Outro]
          A A A A         A7 A7 A7 A7            D D D D         E E E E
e-----------------------------------------------------------------------------|
B---------------------------------------------------------------------------1-|
G--------------------------------------------------------------------------1--|
D-------------------------------------------------------------------------2---|
A-----2-0-------------2-0-------------------2-0----------------2---------2----|
E-0-2-------------0-2-------------------0-2----------------0-2----------------|

            
            
Suggest correction
Creating personal tab
Creating personal tab
You can edit any tab online and save it as your Personal.

You can edit, replace or remove any tab part or add personal notes – all changes will be seen only by you.

Personal tabs can be accessed anytime from any device, even offline.
Learn more »
Give kudos to tab author, rate the tab!
1 2 3 4 5
comments
print report bad tab
guest
You may want to rate the tab now too:
select rating
Wanna post a correction for this tab? Suggest correction