Oops, an error
Loading. Please wait.

Rose Parade chords

version 2
version 2

Whole song

Interactive

46,124 views 174 this week
5 commentsread comments
1 2 3 4 5
x 52
add to favorites
×
Save as Personal and add changes to this tab that will be seen only by you. Learn more ›
×
You can save this tab as Personal to edit and correct it or add notes. All changes will be seen only by you. Learn more »
launch autoscroll
font size
0
reset
transpose
0
reset
simplify chords
display chords
guitar tuner
edit
Autoscroll
slow
fast
+/-
esc
set tempo
stop
Author
Strumming
There is no strumming pattern for this song yet. and get +5 IQ
Album: "Either/Or" [1997]
Tab by Devin Miller


[Intro]

Opening chord progression:

e|-3-2----0-------0--------3-----3-3-3-----|
B|-3-3----2-------0--------3-----3-2-0-----|
G|-2-2----2-------1--------0-----0-0-0-2---|
D|-0-0----2-------2--------0-----0-0-0-0---|
A|--------0-------2--------x-----x-x-x-x---|
E|----------------0--------3-----3-3-3-3---|

Guitar 2:

e|-3-2----0-----10--9--7-----------------|
B|----------------------------3-2-0------|
G|----------------------------------2----|
D|---------------------------------------|
A|---------------------------------------|
E|---------------------------------------|


CHORD REFERENCE:

   D    A    E    G   F#7   Bm   E*   F#7*
e|-2----0----0----3----2----2----0----0-----|
B|-3----2----0----3----2----3----0----2-----|
G|-2----2----1----0----3----4----4----3-----|
D|-0----2----2----0----2----4----2----x-----|
A|------0----2----x----4----2----x----1-----|
E|-----------0----3----2---------4----2-----|


[Verse]

     D           A             E            G
They asked me to come down and watch the parade
       D              A               E            G
And to march down the street like the duracell bunny
       D          A             E     G
With a wink and a wave from the cavalcade
D            A          E             G
Throwing out candy that looks like money

F#7                   Bm         A          E*         G           F#7*  
   To people passing by that all seem to be going the other way
A              D         A            E       G
Said won't you follow me down to the rose parade?


[Verse 2]

        D      A        E              G
Tripped over a dog in a choke-chain collar
D           A            E             G
People were shouting and pushing and saying
           D        A           E             G
And when I traded a smoke for a food stamp dollar
    D        A        E                G
A ridiculous marching band started playing

F#7                     Bm        A         E*       G              F#7*
    And got me singing 'long with some half-hearted victory song


[Chorus]

A           D         A           E        G
  Won't you follow me down to the rose parade?
          D         A           E        G
Won't you follow me down to the rose parade?
          F#7       E           A       E       G
Won't you follow me down to the rose parade?


[Verse 3]

    D           A      E            G
The trumpet has obviously been drinking
          D          A        E          G
'Cos he's fucking up even the simplest lines
    D          A            E              G
I'd say it's a sight that's quite worth seeing
               D          A           E               G
It's just that everyone's interest is stronger than mine

F#7                        Bm                 A    E* 
   And when they clean the street I'll be the only shit
         G             F#7*
that's left behind


[Chorus]

A           D         A           E       G
  Won't you follow me down to the rose parade?
          D         A           E       G
Won't you follow me down to the rose parade?
          F#7       E           A       E       G
Won't you follow me down to the rose parade?



************************************

| x  Dead note

************************************

            
            
Suggest correction
Creating personal tab
Creating personal tab
You can edit any tab online and save it as your Personal.

You can edit, replace or remove any tab part or add personal notes – all changes will be seen only by you.

Personal tabs can be accessed anytime from any device, even offline.
Learn more »
comments
print report bad tab
5 comments total. Showing first comments.
0 reply
MattM752 92 Feb 26, 2010 01:44 PM

Guitar 2:

e|-3-2----0-----10--9--7--THERE IS A---------------|
B|------------------------BIT MISSING---3-2-0------|
G|------------------------HERE----------------2----|
D|-------------------------------------------------|
A|-------------------------------------------------|
E|-------------------------------------------------|
Also the last 4 notes alternate between those you have tabbed and another similar but higher-pitched pattern.

-1 reply
MattM752 92 Feb 27, 2010 01:06 AM

Elliott also plays the song with a capo on the 3rd fret.
But besides these things it is a very good tab!

0 reply
MattM752 92 Feb 27, 2010 01:35 AM

.... How Guitar 2/Lead Guitar part goes:

e|-3-2----0-----10--9--7--------2------------------|
B|--------------------------------3-----3-2-0------|
G|-------------------------------------------------|
D|-------------------------------------------------|
A|-------------------------------------------------|
E|-------------------------------------------------|

e|-3-2----0-----10--9--7--------2-------3-2-0------|
B|--------------------------------3-----------3----|
G|-------------------------------------------------|
D|-------------------------------------------------|
A|-------------------------------------------------|
E|-------------------------------------------------|

guest
You may want to rate the tab now too:
select rating
Wanna post a correction for this tab? Suggest correction