Oops, an error
Loading. Please wait.

Thirteen tab

version 2
version 2

Whole song

Interactive

3,377 views 216 this week
1 commentread comment
1 2 3 4 5
x 4
add to favorites
×
Save as Personal and add changes to this tab that will be seen only by you. Learn more ›
×
You can save this tab as Personal to edit and correct it or add notes. All changes will be seen only by you. Learn more »
launch autoscroll
font size
0
reset
how to read this tab
guitar tuner
edit
Autoscroll
slow
fast
+/-
esc
set tempo
stop
Tune down two steps.


Intro:

  C       F        C       F        C       F        C       F        
E --3---3---3---3-|--3---3---3---3-|--3---3---3---3-|--3---3---3---3-|
B --1---1---1---1-|--1---1---1---1-|--1---1---1---1-|--1---1---1---1-|
G ----0------0h2--|----0------0h2--|----0------0h2--|----0------0h2--|
D --------3-------|--------3-------|--------3-------|--------3-------|
A 3---------------|3---------------|3---------------|3---------------|
E ----------------|----------------|----------------|----------------|


Verse (all three):

  C       F        C       F        C       F        C       F        
E --3---3---3---3-|--3---3---3---3-|--3---3---3---3-|--3---3---3---3-|
B --1---1---1---1-|--1---1---1---1-|--1---1---1---1-|--1---1---1---1-|
G ----0------0h2--|----0------0h2--|----0------0h2--|----0------0h2--|
D --------3-------|--------3-------|--------3-------|--------3-------|
A 3---------------|3---------------|3---------------|3---------------|
E ----------------|----------------|----------------|----------------|
     Won't you let me walk you home from school

  C       F        Asus2            F                Dm               Dm
E --3---3---3---3-|----------------|----------------|------1-------3-|------1-----1---|
B --1---1---1---1-|--------------0-|------3---------|----------3-----|--3---------3---|
G ----0------0h2--|----0-------2---|----2-------0---|----2-------2---|----2-------2---|
D --------3-------|2---------------|3-------2-------|0---------------|0-------0-------|
A 3---------------|--------0-------|----------------|--------0-------|----------------|
E ----------------|----------------|----------------|----------------|----------------|
     Won't you let me meet you at the pool                                        maybe

  Am               Dm               Am7              Dm               Dm
E ------0-------0-|------1---------|------3---------|------1-------3-|------1---------|
B --1-------1-----|--3-------3---3-|--1-------1---1-|--3-------3-----|--3-------3---3-|
G ------------2---|------------2---|----2-------2---|----2-------2---|----2-------2---|
D ----------------|0---------------|----------------|0-------0-------|0-------0-------|
A 0---------------|----------------|0-------0-------|----------------|----------------|
E ----------------|----------------|----------------|----------------|----------------|
  Friday      I    can       get    tickets for the  dance                     and I'll

  G       F       Am7      Dm               Dm
E ------3-----1---------0-|------1-------3-|------1---------|
B ------0-----1-----1-----|--3-------3-----|--3-------3-----|
G 0---0-----2---0-----0---|----2---2---2---|----2---2-----2-|
D --------3-------2-------|0---------------|------------0---|
A ------------------------|----------------|0---------------|
E ------------------------|----------------|----------------|
  Take                     you                    ooh ooh ooh


Chorus:

  Am7              Am6              Am5              Am
E --3---3---3---0 h2-2---2---2---0 h1-1---1---1---0-|--0---0---0---0-|
B --1---1---1---1-|--1---1---1---1-|--1---1---1---1-|--1---1---1---1-|
G ----2-----------|----2-----------|----------------|----------------|
D ------------2---|------------2---|----2-------2---|----------------|
A 0-------0-------|0-------0-------|0-------0-------|0-------2---3---|
E ----------------|----------------|----------------|----------------|

  D7sus4           D7               D7sus4           D7
E --3---3---3---0 h2-2---2---2---0 h3-3---3---3---2-|--2---2---2---2-|
B --1---1---1---1-|--1---1---1---1-|--1---1---1---1-|--1---1---1---1-|
G ----2-------2---|----2-------2---|----2-------2---|----2-------2---|
D 0-------0-------|0-------0-------|0-------0-------|0-------0-------|
A ----------------|----------------|----------------|----------------|
E ----------------|----------------|----------------|----------------|

  G6               G7               G6               G7
E --0---0---0---0 h1-1---1---1---1 p0-0---0---0---0 h1-1---1---1---1-|
B --0---0---0---0-|--0---0---0---0-|--0---0---0---0-|--0---0---0---0-|
G ----0-------0---|----------------|----------------|----------------|
D ----------------|----0-------0---|----0-------0---|----------------|
A ----------------|----------------|----------------|--------0---2---|
E 3-------3-------|3-------3-------|3-------3-------|3---3-----------|


End:

E --3---3---3-------3-|--3---3---3-------3-|--3---3---3-------3-|----------------3---|
B --1---1---1-------1-|--1---1---1-------1-|--1---1---1-------1-|--------1------1----|
G ----0-------(0)h2---|----0-------(0)h2---|----0-------(0)h2---|-----(0)h2----0-----|
D --------3-----------|--------3-----------|--------3-----------|---(0)h2-----2------|
A 3-------------------|3-------------------|3-------------------|3-----------3-------|
E --------------------|--------------------|--------------------|--------------------|



            
            
Suggest correction
Creating personal tab
Creating personal tab
You can edit any tab online and save it as your Personal.

You can edit, replace or remove any tab part or add personal notes – all changes will be seen only by you.

Personal tabs can be accessed anytime from any device, even offline.
Learn more »
comments
print report bad tab
1 comment total.
0 reply
sphiee 10 Oct 18, 2017 08:40 PM

10/10 I liked

guest
You may want to rate the tab now too:
select rating
Wanna post a correction for this tab? Suggest correction