Oops, an error
Loading. Please wait.

Wait For You tab

version 2
version 2

Whole song

Interactive

9,013 views 3 this week
2 commentsread comments
1 2 3 4 5
2 more votes to show rating
add to favorites
×
Save as Personal and add changes to this tab that will be seen only by you. Learn more ›
×
You can save this tab as Personal to edit and correct it or add notes. All changes will be seen only by you. Learn more »
launch autoscroll
font size
0
reset
how to read this tab
guitar tuner
edit
Autoscroll
slow
fast
+/-
esc
set tempo
stop
Difficulty
Email: xtynex@gmail.com

For the rest of the tabs

E|--8-7------------------------------------|
A|------8---10---------8-------------------|
D|--------9--------------------0-9------2--|
G|------------------3--------0--------2----|
B|----------------3-----------------0------|
E|--------------1---------3----------------|

E|--8-7------------------------------------|
A|------8---10---------8--------5----------|
D|--------9-------------------7--------2---|
G|------------------3---------0------2-----|
B|----------------3---------0------0-------|
E|--------------1---------3----------------|

E|--8-7--------------------------------------------------------|
A|------8---10---------8---------------0--1--8---------------0-|
D|--------9-------------------0-9----2----------------5h2--7---|
G|------------------3-------0------2----------------3--------0-|
B|----------------3--------------0----------------3------------|
E|--------------1---------3---------------------1------------3-|

E|---------------------------------------------------------|
A|--1-0-1-1-1--1-1-1-3--3-1-1-----1-1-1-0---1-1-1-3-3-1-3--|
D|--5---2------0--------2-----0-0-------0-0-0-------2------|
G|------3------0--------2---------3---------0-------2------|
B|------3---------------0---------3-----------------0------|
E|------1------3------------------1---------3--------------|

E|--0---3-0-------0------------0-----------0---------------|
A|----3-------0-----3-1-----1----3-1-1---1---3-1-3-1-3-1-3-|
D|----------------------0-0----------0-0---------------0-0-|
G|----------3---0-------2------------------------0---------|
B|--------3-------------0------------3---------------------|
E|------1-------3--------------------1-----------3---------|

E|----------------------------------------------------------|
A|----1-1-1-1-1-1-1-1-3-3-1-1-------1-1-1--1-1-1-1-1-3-3-1-3|
D|--0---------0---------2-------0-0------------0---0---2----|
G|------------0---------2-----------3----------0-------2----|
B|----3-----------------0-------------3----------------0----|
E|----1-------3---------------------1----------3------------|

E|--0---3-0-------0-0----------0-----3-----0------------0--|
A|----3-1-----0-----3-1------3-1-3-1-----1---3-1-3-1-3-----|
D|----------0-----------0--0---0-----0-0-------------------|
G|--------------0-------2------------------------0---------|
B|--------3-------------0------------3---------------------|
E|------1-------3--------------------1-----------3---------|

E|----3-3-3-3-----------------3-3-3------------------3-3-3-3|
A|--1---------1-1-1-0-1-1-1-1-1-----1---3----1-3-1-1-1------|
D|--------0-0-0---0---0-0---0---0-0-----2--2---------0---0-0|
G|------------------------3---------2-0----0-3--------------|
B|----3-------------3---------3---------0------------3------|
E|----0-------------1---------0----------------------0------|

E|-------------------0-0-1-0-------------|
A|--1-1-1-0-1-1--1-1----------3-1-3------|
D|------0-----2----0--------------------0|
G|-------------------0----------------0--|
B|--------3------------------------------|
E|--------1----------3--------------3----|

E|--8-7-----------------------|
A|------8---10-------8--------|
D|--------9----------------0-9|
G|-----------------3-----0----|
B|---------------3------------|
E|--------3----1-------3------|

            
            
Suggest correction
Creating personal tab
Creating personal tab
You can edit any tab online and save it as your Personal.

You can edit, replace or remove any tab part or add personal notes – all changes will be seen only by you.

Personal tabs can be accessed anytime from any device, even offline.
Learn more »
Give kudos to tab author, rate the tab!
1 2 3 4 5
comments
print report bad tab
2 comments total.
0 reply
cyron43 10 Jul 18, 2009 11:40 PM

great tab...

0 reply
natsu 10 Oct 06, 2009 02:49 PM

a minor unimportant mistake, but you flipped the order of the strings
it should read:

but other than that, its awesome

guest
Wanna post a correction for this tab? Suggest correction