Oops, an error
Loading. Please wait.

Goodbye Yellow Brick Road bass

version 1
version 1

Whole song

Interactive

10,488 views 24 this week
1 commentread comment
1 2 3 4 5
x 7
add to favorites
×
Save as Personal and add changes to this tab that will be seen only by you. Learn more ›
×
You can save this tab as Personal to edit and correct it or add notes. All changes will be seen only by you. Learn more »
launch autoscroll
font size
0
reset
guitar tuner
backing track
0:00
0:00
edit
Autoscroll
slow
fast
+/-
esc
set tempo
stop
                            Goodbye Yellow Brick Road
                                   Elton John
                                                      Transcribed by Justin Benz


    0:00                                                                        
G---|--------------------------|-----------------------------------|------------
D---|--3-----2-----------------|-----------------------------------|------------
A---|--------------5-----3-----|--1-----1--3--3--------------------|------------
E---|--------------------------|--------------------0--1-----x--1--|--3---------
                                                                                

                                                                                
G---------------------|--------------------------|------------------------------
D---------------------|--------------------3-----|--1---------------------------
A---1-----3-----------|--------0-----1-----------|--------1-----3-----3---------
E---------------0-----|--1-----------------------|------------------------------
                                                                                

                                                                                
G---|--------------------|-------------------|--------------------------|-------
D---|--------------------|-------------------|--------------------------|-------
A---|--------------------|-------------------|--------1-----3-----------|-------
E---|--1--------------x--|--1---/5--------4--|--3-----------------0-----|--1----
                                                                                

                                                                                
G------------------------|-----------------------------|-----------------|------
D------------------3-----|--1--------------------------|-----------------|------
A------0-----1-----------|--------1-----3-----3--------|-----------------|------
E------------------------|--------------------------0--|--1-----------3--|------
                                                                                

                         0:39                                                   
G------------------------|--------------------------|---------------------------
D---------------------3--|--------------------------|---------------------------
A---0-----1-----3--------|--4-----------6-----------|--------3-----4-----3------
E------------------------|--------1-----------3-----|--4------------------------
                                                                                

                                                                                
G------|--------------------------|-----------------------|---------------------
D------|--------3-----------------|--3--------------------|---------------------
A------|--1-----------3-----------|--------------0-----0--|--1-----0------------
E------|--------------------1-----|--------1--1-----------|-----------1---------
                                                                                

                                                                                
G---------|-----------------------|--------------------------|------------------
D---3--2--|--------3--4--5--------|-----------2--3-----2-----|--------5--6------
A---------|--5-----------------5--|--3-----5-----------------|--5---------------
E---------|-----------------------|--------------------------|------------------
                                                                                

                                                                                
G------------|--------------|-----------------|--------------------------|------
D---7--------|--------------|--------------1--|--3-----2-----------------|------
A---------0--|--1-----1--3--|--4-----1--4-----|--------------5-----3-----|------
E------------|--------------|-----------------|--------------------------|------
                                                                                

                      1:23                                                      
G---------------------|--------------------------|--------5-----5--6-----5------
D---------------------|--------3-----------5-----|--6--------8------------------
A---1-----1--1--3-----|--4-----------6-----------|------------------------------
E---------------------|--------------------------|------------------------------
                                                                                

                                                           1:38                 
G------|----------------------------|----------------------|--------------------
D------|--8-----------10------------|----------------------|--------------------
A------|--------8------------10-----|--8-------------------|--------1-----3-----
E------|----------------------------|--------8\1--------1--|--3-----------------
                                                                                

                                                                                
G------------|--------------------------|--------------------------|------------
D------2-----|--3-----------------3-----|--1-----------------------|------------
A------------|--------0-----1-----------|--------1-----3-----------|------------
E------------|--------------------------|--------------------3-----|--1---------
                                                                                

                                                                                
G---------------2-----|--------------------------|------------------------------
D---------3--5-----5--|--------------------2-----|--------------------3---------
A---3-----------------|--------1-----3-----------|--------0-----1---------------
E---------------------|--3-----------------------|--1---------------------------
                                                                                

                                                                 2:11           
G---|--------------------------|---------------------------------|--------------
D---|--1-----------------------|-------------------3---/7--5--3--|--------3-----
A---|--------1-----3-----------|-------------3--5----------------|--4-----------
E---|--------------------3-----|--1-----3/5----------------------|--------------
                                                                                

                                                                                
G------------------|--------5-----6-----5-----|--3-----------5-----5--2---------
D------------5-----|--6-----------------------|--------3-----------------5------
A------6-----------|--------------------------|---------------------------------
E------------------|--------------------------|---------------------------------
                                                                                

                                                                                
G---|-----------------------|-----------------------------|---------------------
D---|-----------------------|-----------------------2-----|---------------------
A---|--------------0-----0--|--1-----0--------------------|--5------------------
E---|--1-----3--4-----------|-----------3-----1-----------|--------5--4--3------
                                                                                

                                                                                
G------------|--------------------------5--|--7---------------------------------
D------------|-----------2--3-----5--7-----|--------7---------------------------
A------5-----|--3-----5--------------------|-----------5------------------------
E---------3--|-----------------------------|-----------------3--5-----0--5------
                                                                                

                                                                                
G---------|--------------|--------------------------|---------------------------
D---------|--------------|-----------------------1--|--3-----2------------------
A---------|-----------3--|--4--------------1--4-----|--------------5-----1------
E------5--|--6-----6-----|--------------4-----------|---------------------------
                                                                                

                                  2:54                                          
G------------|--------------------|--------------------------|------------------
D------------|--------------------|--------3-----------------|------------------
A---2--3-----|--1-----1--3--3-----|--4-----------6-----------|--------3---------
E------------|--------------------|--------------------3--6--|--4---------------
                                                                                

                                                                                
G---------------|--------------------------------|-----------------||-----------
D---------3--6--|--------3-----------------------|-----------------||-----------
A---4-----------|--1-----------1--3-----3--------|-----------------||-----------
E---------------|--------------------3--------0--|--1--------------||-----------
                                                                                



================================================================================
==                Created with a demo version of BUCKET O' TAB                ==
==                  tablature creation software for Windows                   ==
==                       http://www.his.com/~gse/bucket                       ==
================================================================================




            
            
Suggest correction
Creating personal tab
Creating personal tab
You can edit any tab online and save it as your Personal.

You can edit, replace or remove any tab part or add personal notes – all changes will be seen only by you.

Personal tabs can be accessed anytime from any device, even offline.
Learn more »
comments
print report bad tab
1 comment total.
0 reply
hugotahell 65 Dec 23, 2016 02:33 PM

This is perfect. People just need to use their damn ears properly.

guest
Wanna post a correction for this tab? Suggest correction