Oops, an error
Loading. Please wait.

Someone Saved My Life Tonight bass

version 1
version 1

Whole song

Interactive

73 views 6 this week
no commentswrite comment
1 2 3 4 5
2 more votes to show rating
add to favorites
×
Save as Personal and add changes to this tab that will be seen only by you. Learn more ›
×
You can save this tab as Personal to edit and correct it or add notes. All changes will be seen only by you. Learn more »
launch autoscroll
font size
0
reset
guitar tuner
edit
Autoscroll
slow
fast
+/-
esc
set tempo
stop
4/4

[Intro]                                                                    
G|--------------------------------|--------------------------------|
D|--------------------------------|1-------------------------------|
A|--------------------------------|--------------------------------|
E|--------------------------------|--------------------------------| 
                                                                    
G|--------------------------------|--------------------------------|
D|--------------------------------|--------------------------------|
A|4---------------3---------------|1-------------------------------|
E|--------------------------------|----------------4---------------| 
                                                    
G|----------------|--------------------------------|
D|----------------|--------------------------------|
A|----------------|--------------------------------|
E|----------------|2---------------4---------------|
 
[Verse]                                                                    
G|--------------------------------|------------------------6-------|
D|--------------------------------|--------------------------------|
A|--------------------------------|4-------------------------------|
E|2---------------4---------------|--------------------------------| 
                                                                    
G|--------------------------1-----|--------------------------------|
D|--------------------------------|--------------------------------|
A|4-------------------------------|1-------------------------------|
E|----------------------------4---|--------------------------------| 
                                                                    
G|--------------------------------|--------------------------------|
D|--------------------------------|0---------------0-----------0---|
A|4---------------4-----------4---|--------------------------------|
E|--------------------------------|--------------------------------| 
                                                                    
G|--------------------------------|----------------------------3---|
D|1-----------1---1---------------|1-----------1---1---------------|
A|--------------------------------|--------------------------------|
E|--------------------------------|--------------------------------|
                                                                    
G|--------------------------------|--------------------------------|
D|--------------------------------|--------------------------------|
A|4-----------4---3-----------3---|1---------------1-------3-------|
E|--------------------------------|--------------------------------| 
                                                                    
G|--------------------------------|--------------------------------|
D|--------------------------------|--------------------------------|
A|4-----------4---3-----------3---|1---------------1-------3-------|
E|--------------------------------|--------------------------------| 
                                                                    
G|--------------------------------|--------------------------------|
D|--------------------------------|--------------------------------|
A|4---------------3---------------|4---------------5---------------|
E|--------------------------------|--------------------------------|
                                                                    
G|--------------------------------|--------------------------------|
D|1-------------------------1---2-|3-------------------------------|
A|--------------------------------|----------------------------1---|
E|--------------------------------|------------------------------4-| 
                                                                    
G|--------------------------------|--------------------------------|
D|--------------------------------|0-----------0---0-----------0---|
A|4-----------4---4-----------4---|--------------------------------|
E|--------------------------------|--------------------------------| 
                                                                    
G|--------------------------------|--------------------------------|
D|1---------------1---------------|--------------------------------|
A|------------------------3-------|4---------------3---------------|
E|--------------------------------|--------------------------------| 
                                                                    
G|--------------------------------|--------------------------------|
D|----------------------------1---|--------------------------------|
A|1-------------------------------|----------------------------4---|
E|------------------------4-------|2-------------------------------| 
                                                                    
G|--------------------------------|--------------------------------|
D|1-------------------------------|--------------------------------|
A|--------------------------------|--------------------------------|
E|--------------------------------|--------------------------------|
 
                                  [Pre-Chorus]                                  
G|--------------------------------|--------------------------------|
D|1-------------------------------|--------------------------------|
A|--------------------------------|4---------------3---------------|
E|--------------------------------|--------------------------------| 
                                                    
G|--------------------------------|----------------|
D|--------------------------------|----------------|
A|1-------------------------------|----------------|
E|----------------4---------------|----------------|
 
[Chorus]                                                                    
G|--------------------------------|--------------------------------|
D|--------------------------------|--------------------------------|
A|--------------------------------|--------------------------------|
E|2---------------4---------------|2-------------2-4---------4-----| 
                                                                    
G|--------------------------------|----------------6---------------|
D|--------------------------------|------------6-------------6-----|
A|4-----------4---4---------4-----|4-------------------------------|
E|--------------------------------|----------------------------4---| 
                                                                    
G|--------------------------------|--------------------------------|
D|--------------------------------|--------------------------------|
A|1-----------1---1-----------3---|4-----------4---4-----------4---|
E|--------------------------------|--------------------------------| 
                                                                    
G|--------------------------------|--------------------------------|
D|0-----------0---0-----------0---|1-----------1---1---------------|
A|--------------------------------|--------------------------1-----|
E|--------------------------------|--------------------------------| 
                                                                    
G|----------------------------3---|--------------------------------|
D|1-----------1---1---------------|--------------------------------|
A|--------------------------------|4-----------4---3-----------3---|
E|--------------------------------|--------------------------------| 
                                                                    
G|--------------------------------|--------------------------------|
D|--------------------------------|--------------------------------|
A|1---------------1-------3-------|4-----------4---3-----------3---|
E|--------------------------------|--------------------------------| 
                                                                    
G|--------------------------------|--------------------------------|
D|--------------------------------|--------------------------------|
A|1---------------1-------3-------|4-----------4---3-----------3---|
E|--------------------------------|--------------------------------| 
                                                                    
G|--------------------------------|--------------------------------|
D|--------------------------------|1-----------1---1-----------1---|
A|4-----------4---5-----------5---|--------------------------------|
E|--------------------------------|--------------------------------| 
                                                                    
G|--------------------7-----------|--------------------------------|
D|--------------------------------|--------------------------------|
A|------------------------8-8-----|4-----------4---4-----------4---|
E|1---------------1---------------|--------------------------------| 
                                                                    
G|--------------------------------|--------------------------------|
D|0-----------0---0-----------0---|1---------------1---------------|
A|--------------------------------|------------------------3-------|
E|--------------------------------|--------------------------------| 
                                                                    
G|--------------------------------|--------------------------------|
D|--------------------------------|----------------------------1---|
A|4---------------3---------------|1-------------------------------|
E|--------------------------------|------------------------4-------|
                                                                    
G|--------------------------------|--------------------------------|
D|--------------------------------|1-------------------------------|
A|----------------------------4---|--------------------------------|
E|2-------------------------------|--------------------------------|
 
                                  [Verse]                                  
G|--------------------------------|----------------3---------------|
D|--------------------------------|--------2---3-------------------|
A|--------------------------------|1-----------------------------1-|
E|------------------------------1-|----------------------------4---| 
                                                                    
G|--------------------------------|--------------------------------|
D|--------------------------------|--------------------------------|
A|3-------------------------------|--------------------------------|
E|----------------------------4-3-|1-----------1-------------------| 
                                                                    
G|--------------------------------|----------------3---------------|
D|--------------------------------|------------3-------------------|
A|------------------------------0-|1-------------------------------|
E|4-----------4---------------4---|--------------------------------|
                                                                    
G|----------------5---------------|--------------------------------|
D|------------6-------------------|--------------------------------|
A|3-------------------------------|--------------------------------|
E|--------------------------------|1-----------1-------1-----1-1---| 
                                                                    
G|--------------------------------|--------------------------------|
D|--------------------------------|--------------------------------|
A|--------------------------------|--------------------------------|
E|4-----------4---------4-4-4-4---|1-----------1-------1-----1-1---| 
                                                                    
G|--------------------------------|--------------------------------|
D|--------------------------------|--------------------------------|
A|--------------------------------|--------------------------------|
E|4-----------4---------4-4-4-4---|1-----------1-------1-----1-1---|
                                                                    
G|--------------------------------|--------------------------------|
D|--------------------------------|--------------------------------|
A|--------------------------------|1-----------1---1-----------3---|
E|4-----------4---4-----------4---|--------------------------------| 
                                                                    
G|--------------------------------|--------------------------------|
D|--------------------------------|--------------------------------|
A|4-----------4---3-----------3---|1---------------1-------3-------|
E|--------------------------------|--------------------------------|
                                                                    
G|--------------------------------|--------------------------------|
D|--------------------------------|--------------------------------|
A|4-----------4---3-----------3---|1---------------1-------3-------|
E|--------------------------------|--------------------------------|
                                                                    
G|--------------------------------|--------------------------------|
D|--------------------------------|--------------------------------|
A|4-----------4---3-----------3---|4-----------4---5-----------5---|
E|--------------------------------|--------------------------------| 
                                                                    
G|--------------------------------|--------------------7-----------|
D|1-----------1---1-----------1---|--------------------------------|
A|--------------------------------|------------------------8-8-----|
E|--------------------------------|1---------------1---------------|
                                                                    
G|--------------------------------|--------------------------------|
D|--------------------------------|0-----------0---0-----------0---|
A|4-----------4-4-4-----------4---|--------------------------------|
E|--------------------------------|--------------------------------|
                                                                    
G|--------------------------------|--------------------------------|
D|1---------------1---------------|--------------------------------|
A|------------------------3-------|4---------------3---------------|
E|--------------------------------|--------------------------------|
                                                                    
G|--------------------------------|--------------------------------|
D|--------------------------------|--------------------------------|
A|1-------------1-1---------------|------------------------4-------|
E|------------------------4-------|2---------------2---------------|
 
[Chorus]                                                                    
G|--------------------0-1---0-----|--------------------------------|
D|1-------1-------1-3---------1---|------------------1-3-4---3-----|
A|--------------------------------|4-------4-------4---------------|
E|--------------------------------|--------------------------------|
                                                                    
G|--------------------0-1---0-----|--------------------------------|
D|1-------1-------1-3---------1---|------------------1-3-4---3-----|
A|--------------------------------|4-------4-------4---------------|
E|--------------------------------|--------------------------------|
                                                                    
G|--------------------0-1---0-----|--------------------------------|
D|1-------1-------1-3---------1---|------------------1-3-4---3-----|
A|--------------------------------|4-------4-------4---------4-----|
E|--------------------------------|--------------------------------|
                                                                    
G|--------------------0-1---0-----|--------------------------------|
D|1-------1-------1-3---------1---|------------------1-3-4---3-----|
A|--------------------------------|4-------4-------4---------------|
E|--------------------------------|--------------------------------|
                                                                    
G|--------------------0-1---0-----|--------------------------------|
D|1-------1-------1-3---------1---|------------------1-3-4---3-----|
A|--------------------------------|4-------4-------4---------4-----|
E|--------------------------------|--------------------------------|
                                                                    
G|--------------------0-1---0-----|--------------------------------|
D|1-------1-------1-3---------1---|------------------1-3-4---3-----|
A|--------------------------------|4-------4-------4---------------|
E|--------------------------------|--------------------------------|
                                                                    
G|--------------------------------|--------------------------------|
D|--------------------------------|--------------------------------|
A|--------------------------------|--------------------------------|
E|4-------------------------------|--------------------------------|

            
            
Suggest correction
Creating personal tab
Creating personal tab
You can edit any tab online and save it as your Personal.

You can edit, replace or remove any tab part or add personal notes – all changes will be seen only by you.

Personal tabs can be accessed anytime from any device, even offline.
Learn more »
Give kudos to tab author, rate the tab!
1 2 3 4 5
comments
print report bad tab
guest
You may want to rate the tab now too:
select rating
Wanna post a correction for this tab? Suggest correction