Oops, an error
Loading. Please wait.

Tiny Dancer bass

version 1
version 1

Whole song

Interactive

478 views 12 this week
no commentswrite comment
1 2 3 4 5
3 more votes to show rating
add to favorites
×
Save as Personal and add changes to this tab that will be seen only by you. Learn more ›
×
You can save this tab as Personal to edit and correct it or add notes. All changes will be seen only by you. Learn more »
launch autoscroll
font size
0
reset
guitar tuner
edit
Autoscroll
slow
fast
+/-
esc
set tempo
stop
Artist: Elton John
Song: Tiny Dancer
Tuning - Standard
tabbed by electricbunny

[Intro]
G|--------------------------------|--------------------------------|
D|--------------------------------|--------------------------------|
A|--------------------------------|--------------------------------|X20
E|--------------------------------|--------------------------------|
 
[Verse]                                                             
G|--------------------------------|--------------------------------|
D|--------------------------------|--------------------------------|
A|3-------------------3-------3---|3-----------3-------3-------3---|
E|--------------------------------|------------------------3-------|
 
G|--------------------------------|--------------------------------|
D|--------------------------------|--------------------------------|
A|3-----------3-------3-------3---|3-----------3-----------3-------|
E|--------------------------------|--------------------3-------3---|
 
G|--------------------------------|--------------------------------|
D|--------------------------------|--------------------------------|
A|3-----------3---3---3-------3---|3-----------3-------3---3-------|
E|--------------------------------|----------------------------3---|
 
G|--------------------------------|--------------------------------|
D|--------------------------------|--------------------------------|
A|3-----------3---3---3-------3---|3-----------3-------3-------3---|X2
E|--------------------------------|--------------------------------|
 
G|--------------------------------|--------------------------------|
D|--------------------------------|--------------------------------|
A|0-----------0---0-----------0---|0-----------0---0---2-----------|
E|--------------------------------|--------------------------------|
 
G|--------------------------------|--------------------------------|
D|--------------------------------|--------------------------------|
A|3-----------3---3-----------3---|----3-------3---3---3-------3---|
E|--------------------------------|--------------------------------|
 
G|--------------------------------|--------------------------------|
D|--------------------------------|--------------------------------|
A|3-----------3---3---3-------3---|3-----------3-------3-------3---|
E|--------------------------------|------------------------3-------|
 
G|--------------------------------|--------------------------------|
D|--------------------------------|--------------------------------|
A|3-----------3---3---3-------3---|3-----------3-------3-------3---|
E|--------------------------------|--------------------------------|
 
G|--------------------------------|--------------------------------|
D|--------------------------------|--------------------------------|
A|0-----------0---0-----------0---|0-----------0---0---------------|
E|--------------------------------|--------------------3-----------|
 
[Interlude]                                                         
G|--------------------------------|--------------------------------|
D|------------3-----------3-------|2-----------2-----------2-------|
A|--------------------------------|--------------------------------|
E|1-------------------1-----------|--------------------0-----------|
 
G|--------------------------------|--------------------------------|
D|--------------------------------|4-----------4-----------4-------|
A|0-----------0-------0-------0---|--------------------------------|
E|--------------------------------|--------------------2-------2---|
 
G|--------------------------------|--------------------------------|
D|3-----------3-----------3-------|2-------------------2-------2---|
A|--------------------------------|--------------------------------|
E|--------------------1-----------|--------------------------------|
 
G|--------------------2-----------|------------0-----------0-------|
D|----------------------------2---|--------------------------------|
A|0-----------0-------------------|--------------------------------|
E|--------------------------------|3-------------------3-----------|
 
[Verse]                                                             
G|--------------------------------|--------------------------------|
D|--------------------------------|--------------------------------|
A|3-----------3---3-----------3---|----3-------3---3---3-------3---|
E|--------------------------------|------------------------3-------|
 
G|--------------------------------|--------------------------------|
D|--------------------------------|--------------------------------|
A|3-----------3-------3-------3---|3-----------3-------3-------3---|
E|--------------------------------|------------------------3-------|
 
G|--------------------------------|--------------------------------|
D|--------------------------------|--------------------------------|
A|3-----------3-------3-------3---|3-------3---3-------3-------3---|
E|--------------------------------|--------------------------------|
 
G|0-------------------------------|--------------------------------|
D|----------------3---------------|2---------------0---------------|
A|--------------------------------|--------------------------------|
E|------------3-------------------|--------------------------------|
 
G|--------------------------------|--------------------------------|
D|--------------------------------|--------------------------------|
A|3-------------------------------|--------------------------------|
E|--------------------------------|--------------------------------|
 
G|--------------------------------|--------------------------------|
D|--------------------------------|--------------------------------|
A|--------------------------------|--------------------------------|
E|--------------------------------|--------------------------------|
 
[Pre-Chorus]                                                        
G|--------------------------------|--------------------------------|
D|--------------------------------|--------------------------------|
A|--------------------------------|1-------1-------1-------1-------|
E|4-------4-------4-------4-------|--------------------------------|
 
G|--------------------------------|--------------------------------|
D|--------------------------------|--------------------------------|
A|--------------------------------|3-------3-------3-------3-------|
E|3-------3-------3-------3-------|--------------------------------|
 
G|--------------------------------|--------------------------------|
D|--------------------------------|--------------------------------|
A|--------------------------------|--------------------------------|
E|4-------4-------4-------4-------|4-------4-------4-------4-------|
 
G|--------------------------------|--------------------------------|
D|--------------------------------|--------------------------------|
A|1-------1-------1-------1-------|1-------1-------1-------1-------|
E|--------------------------------|--------------------------------|
 
G|--------------------------------|--------------------------------|
D|--------------------------------|--------------------------------|
A|2---------------2---------------|--------2-----------2-----------|
E|--------------------------------|--------------------------------|
 
G|--------------------------------|--------------------------------|
D|0---------------0---------------|--------0-----------0-----------|
A|--------------------------------|--------------------------------|
E|--------------------------------|--------------------------------|
 
[Chorus]                                                            
G|--------------------------------|--------------------------------|
D|----------------3-----------3---|2-----------2-----------2-------|
A|--------------------------------|--------------------------------|
E|1-----------1-----------1-------|--------------------0-------0---|
 
G|--------------------------------|--------------------------------|
D|0---------------0---------------|0-------0-------0---2-----------|
A|--------------------------------|--------------------------------|
E|--------------------------------|--------------------------------|
 
G|--------------------------------|--------------------------------|
D|3---------------3-------3-------|2-----------2-----------2-------|
A|--------------------------------|--------------------------------|
E|------------1-------1-----------|--------------------------------|
 
G|--------------------2-------2---|----2-----------2-------2-------|
D|--------------------------------|--------------------------------|
A|0-----------0-------------------|------------0-------0-----------|
E|--------------------------------|--------------------------------|
 
G|--------------------------------|--------------------------------|
D|----------------3-----------3---|2-----------2-----------2-------|
A|--------------------------------|--------------------------------|
E|1-----------1-----------1-------|--------------------0-------0---|
 
G|--------------------------------|--------------------------------|
D|0---------------0---------------|0-------0-------0---2-----------|
A|--------------------------------|--------------------------------|
E|--------------------------------|--------------------------------|
 
G|--------------------------------|--------------------------------|
D|3---------------3-------3-------|2-----------2-----------2-------|
A|--------------------------------|--------------------------------|
E|------------1-------1-----------|--------------------------------|
 
G|--------------------2-------2---|----2-----------2-------2-------|
D|--------------------------------|--------------------------------|
A|0-----------0-------------------|------------0-------0-----------|
E|--------------------------------|--------------------------------|
 
G|--------------------------------|--------------------------------|
D|----------------3-----------3---|2-----------2-----------2-------|
A|--------------------------------|--------------------------------|
E|1-----------1-----------1-------|--------------------0-------0---|
 
G|--------------------------------|--------------------------------|
D|0---------------0---------------|0-------0-------0---2-----------|
A|--------------------------------|--------------------------------|
E|--------------------------------|--------------------------------|
 
G|--------------------------------|--------------------------------|
D|3---------------3-------3-------|2-----------2-----------2-------|
A|--------------------------------|--------------------------------|
E|------------1-------1-----------|--------------------------------|
 
G|--------------------2-------2---|----2-----------2-------2-------|
D|--------------------------------|--------------------------------|
A|0-----------0-------------------|------------0-------0-----------|
E|--------------------------------|--------------------------------|
 
G|--------------------------------|--------------------------------|
D|----------------3-----------3---|2-----------2-----------2-------|
A|--------------------------------|--------------------------------|
E|1-----------1-----------1-------|--------------------0-------0---|
 
G|--------------------------------|--------------------------------|
D|0---------------0---------------|0-------0-------0---2-----------|
A|--------------------------------|--------------------------------|
E|--------------------------------|--------------------------------|
 
G|--------------------------------|--------------------------------|
D|3---------------3-------3-------|2-----------2-----------2-------|
A|--------------------------------|--------------------------------|
E|------------1-------1-----------|--------------------------------|
 
G|------------2-------------------|----2-------------------2-------|
D|--------------------------------|--------------------------------|
A|0-------------------0-------0---|------------0-------0-----------|
E|--------------------------------|--------------------------------|
 
G|------------2-----------2-------|----2-------------------2-------|
D|--------------------------------|--------------------------------|
A|0-------------------0-----------|------------0-------0-----------|
E|--------------------------------|--------------------------------|
 
G|------------2-----------2-------|------------2-----------2-------|
D|--------------------------------|--------------------------------|
A|0---------------------------0---|----0---------------0-------0---|
E|--------------------------------|--------------------------------|
 
G|--------------------------------|--------------------------------|
D|--------------------------------|--------------------------------|
A|3-----------3-----------3-------|----3-----------3---------------|
E|--------------------------------|--------------------------------|
 
[Verse]                                                             
G|--------------------------------|--------------------------------|
D|--------------------------------|--------------------------------|
A|3-------------------------------|--------------------------------|
E|--------------------------------|--------------------------------|
 
G|--------------------------------|--------------------------------|
D|--------------------------------|--------------------------------|
A|--------------------------------|--------------------------------|
E|--------------------------------|--------------------------------|
 
G|--------------------------------|--------------------------------|
D|--------------------------------|--------------------------------|
A|3-----------3---3---3-------3---|3-----------3-------3---3-------|
E|--------------------------------|----------------------------3---|
 
G|--------------------------------|--------------------------------|
D|--------------------------------|--------------------------------|
A|3-----------3---3---3-------3---|3-----------3-------3-------3---|
E|--------------------------------|--------------------------------|
 
G|--------------------------------|--------------------------------|
D|--------------------------------|--------------------------------|
A|3-----------3---3---3-------3---|3-----------3-------3-------3---|
E|--------------------------------|--------------------------------|
 
G|--------------------------------|--------------------------------|
D|--------------------------------|--------------------------------|
A|0-----------0---0-----------0---|0-----------0---0---2-----------|
E|--------------------------------|--------------------------------|
 
G|--------------------------------|--------------------------------|
D|--------------------------------|--------------------------------|
A|3-----------3---3-----------3---|----3-------3---3---3-------3---|
E|--------------------------------|--------------------------------|
 
G|--------------------------------|--------------------------------|
D|--------------------------------|--------------------------------|
A|3-----------3---3---3-------3---|3-----------3-------3-------3---|
E|--------------------------------|------------------------3-------|
 
G|--------------------------------|--------------------------------|
D|--------------------------------|--------------------------------|
A|3-----------3---3---3-------3---|3-----------3-------3-------3---|
E|--------------------------------|--------------------------------|
 
G|--------------------------------|--------------------------------|
D|--------------------------------|--------------------------------|
A|0-----------0---0-----------0---|0-----------0---0---------------|
E|--------------------------------|--------------------3-----------|
 
[Interlude]                                                         
G|--------------------------------|--------------------------------|
D|------------3-----------3-------|2-----------2-----------2-------|
A|--------------------------------|--------------------------------|
E|1-------------------1-----------|--------------------0-----------|
 
G|--------------------------------|--------------------------------|
D|--------------------------------|4-----------4-----------4-------|
A|0-----------0-------0-------0---|--------------------------------|
E|--------------------------------|--------------------2-------2---|
 
G|--------------------------------|--------------------------------|
D|3-----------3-----------3-------|2-------------------2-------2---|
A|--------------------------------|--------------------------------|
E|--------------------1-----------|--------------------------------|
 
G|--------------------2-----------|------------0-----------0-------|
D|----------------------------2---|--------------------------------|
A|0-----------0-------------------|--------------------------------|
E|--------------------------------|3-------------------3-----------|
 
[Verse]                                                             
G|--------------------------------|--------------------------------|
D|--------------------------------|--------------------------------|
A|3-----------3---3-----------3---|----3-------3---3---3-------3---|
E|--------------------------------|------------------------3-------|
 
G|--------------------------------|--------------------------------|
D|--------------------------------|--------------------------------|
A|3-----------3-------3-------3---|3-----------3-------3-------3---|
E|--------------------------------|------------------------3-------|
 
G|--------------------------------|--------------------------------|
D|--------------------------------|--------------------------------|
A|3-----------3-------3-------3---|3-------3---3-------3-------3---|
E|--------------------------------|--------------------------------|
 
G|0-------------------------------|--------------------------------|
D|----------------3---------------|2---------------0---------------|
A|--------------------------------|--------------------------------|
E|------------3-------------------|--------------------------------|
 
G|--------------------------------|--------------------------------|
D|--------------------------------|--------------------------------|
A|3-------------------------------|--------------------------------|
E|--------------------------------|--------------------------------|
 
G|--------------------------------|--------------------------------|
D|--------------------------------|--------------------------------|
A|--------------------------------|--------------------------------|
E|--------------------------------|--------------------------------|
 
[Pre-Chorus]                                                        
G|--------------------------------|--------------------------------|
D|--------------------------------|--------------------------------|
A|--------------------------------|1-------1-------1-------1-------|
E|4-------4-------4-------4-------|--------------------------------|
 
                                                                    
G|--------------------------------|--------------------------------|
D|--------------------------------|--------------------------------|
A|--------------------------------|3-------3-------3-------3-------|
E|3-------3-------3-------3-------|--------------------------------|
 
G|--------------------------------|--------------------------------|
D|--------------------------------|--------------------------------|
A|--------------------------------|--------------------------------|
E|4-------4-------4-------4-------|4-------4-------4-------4-------|
 
G|--------------------------------|--------------------------------|
D|--------------------------------|--------------------------------|
A|1-------1-------1-------1-------|1-------1-------1-------1-------|
E|--------------------------------|--------------------------------|
 
G|--------------------------------|--------------------------------|
D|--------------------------------|--------------------------------|
A|2---------------2---------------|--------2-----------2-----------|
E|--------------------------------|--------------------------------|
 
G|--------------------------------|--------------------------------|
D|0---------------0---------------|--------0-----------0-----------|
A|--------------------------------|--------------------------------|
E|--------------------------------|--------------------------------|
 
[Chorus]                                                            
G|--------------------------------|--------------------------------|
D|----------------3-----------3---|2-----------2-----------2-------|
A|--------------------------------|--------------------------------|
E|1-----------1-----------1-------|--------------------0-------0---|
 
G|--------------------------------|--------------------------------|
D|0---------------0---------------|0-------0-------0---2-----------|
A|--------------------------------|--------------------------------|
E|--------------------------------|--------------------------------|
 
G|--------------------------------|--------------------------------|
D|3---------------3-------3-------|2-----------2-----------2-------|
A|--------------------------------|--------------------------------|
E|------------1-------1-----------|--------------------------------|
 
G|--------------------2-------2---|----2-----------2-------2-------|
D|--------------------------------|--------------------------------|
A|0-----------0-------------------|------------0-------0-----------|
E|--------------------------------|--------------------------------|
 
G|--------------------------------|--------------------------------|
D|----------------3-----------3---|2-----------2-----------2-------|
A|--------------------------------|--------------------------------|
E|1-----------1-----------1-------|--------------------0-------0---|
 
G|--------------------------------|--------------------------------|
D|0---------------0---------------|0-------0-------0---2-----------|
A|--------------------------------|--------------------------------|
E|--------------------------------|--------------------------------|
 
G|--------------------------------|--------------------------------|
D|3---------------3-------3-------|2-----------2-----------2-------|
A|--------------------------------|--------------------------------|
E|------------1-------1-----------|--------------------------------|
 
G|--------------------2-------2---|----2-----------2-------2-------|
D|--------------------------------|--------------------------------|
A|0-----------0-------------------|------------0-------0-----------|
E|--------------------------------|--------------------------------|
 
G|--------------------------------|--------------------------------|
D|----------------3-----------3---|2-----------2-----------2-------|
A|--------------------------------|--------------------------------|
E|1-----------1-----------1-------|--------------------0-------0---|
 
G|--------------------------------|--------------------------------|
D|0---------------0---------------|0-------0-------0---2-----------|
A|--------------------------------|--------------------------------|
E|--------------------------------|--------------------------------|
 
G|--------------------------------|--------------------------------|
D|3---------------3-------3-------|2-----------2-----------2-------|
A|--------------------------------|--------------------------------|
E|------------1-------1-----------|--------------------------------|
 
G|--------------------2-------2---|----2-----------2-------2-------|
D|--------------------------------|--------------------------------|
A|0-----------0-------------------|------------0-------0-----------|
E|--------------------------------|--------------------------------|
 
G|--------------------------------|--------------------------------|
D|----------------3-----------3---|2-----------2-----------2-------|
A|--------------------------------|--------------------------------|
E|1-----------1-----------1-------|--------------------0-------0---|
 
G|--------------------------------|--------------------------------|
D|0---------------0---------------|0-------0-------0---2-----------|
A|--------------------------------|--------------------------------|
E|--------------------------------|--------------------------------|
 
G|--------------------------------|--------------------------------|
D|3---------------3-------3-------|2-----------2-----------2-------|
A|--------------------------------|--------------------------------|
E|------------1-------1-----------|--------------------------------|
 
G|------------2-------------------|----2-------------------2-------|
D|--------------------------------|--------------------------------|
A|0-------------------0-------0---|------------0-------0-----------|
E|--------------------------------|--------------------------------|
 
G|------------2-----------2-------|----2-------------------2-------|
D|--------------------------------|--------------------------------|
A|0-------------------0-----------|------------0-------0-----------|
E|--------------------------------|--------------------------------|
 
                                  [Outro]                           
G|------------2-----------2-------|------------2-----------2-------|
D|--------------------------------|--------------------------------|
A|0---------------------------0---|----0---------------0-------0---|
E|--------------------------------|--------------------------------|
 
G|--------------------------------|--------------------------------|
D|--------------------------------|--------------------------------|
A|3-----------3-----------3-------|----3-----------3---------------|
E|--------------------------------|--------------------------------|
 
G|--------------------------------|--------------------------------|
D|--------------------------------|--------------------------------|
A|3-------------------3-------3---|3-----------3-------3-------3---|
E|--------------------------------|------------------------3-------|
 
G|--------------------------------|--------------------------------|
D|--------------------------------|--------------------------------|
A|3-----------3-------3-------3---|3-----------3-----------3-------|
E|--------------------------------|--------------------3-------3---|
 
G|--------------------------------|--------------------------------|
D|--------------------------------|--------------------------------|
A|3-------------------3-------3---|3-----------3-------3-------3---|
E|--------------------------------|------------------------3-------|
 
G|--------------------------------|
D|--------------------------------|
A|3-------------------------------|
E|--------------------------------|

            
            
Suggest correction
Creating personal tab
Creating personal tab
You can edit any tab online and save it as your Personal.

You can edit, replace or remove any tab part or add personal notes – all changes will be seen only by you.

Personal tabs can be accessed anytime from any device, even offline.
Learn more »
Give kudos to tab author, rate the tab!
1 2 3 4 5
comments
print report bad tab
guest
You may want to rate the tab now too:
select rating
Wanna post a correction for this tab? Suggest correction