Oops, an error
Loading. Please wait.

Lipstick Vogue bass

49 views 3 this week
1 commentread comment
1 2 3 4 5
1 last vote to show rating
add to favorites
×
Save as Personal and add changes to this tab that will be seen only by you. Learn more ›
×
You can save this tab as Personal to edit and correct it or add notes. All changes will be seen only by you. Learn more »
launch autoscroll
font size
0
reset
guitar tuner
edit
Autoscroll
slow
fast
+/-
esc
set tempo
stop
Elvis Costello - Lipstick Vogue
Tabbed by electricbunny

4/4

[Intro]
      
G|--------------------------------|--------------------------------|
D|--------------------------------|--------------------------------|
A|2-----2-----0-----0-----0---1---|2-2---2-----0-----0-----0---1---|
E|----------4---------2-----------|----------4---------2-----------|
 

G|--------------------------------|--------------------------------|
D|--------------------------------|--------------------------------|
A|2-2---2-----0---2-2-----0---1---|2-2---2-----0---2-2-----0---1---|
E|----------4---------2-----------|----------4---------2-----------|
 
[Verse 1]  

G|--------------------------------|--------------------------------|
D|--------------------------------|--------------------------------|
A|2-2---2-----0-----------0---1---|2-2---2-----0-----2-----0---1---|
E|----------4-------2-------------|----------4---------2-----------|
  

G|--------------------------------|--------------------------------|
D|--------------------------------|--------------------------------|
A|2---2-2-----0---2-2-----0---1---|2-2---2-----0---2---0-----------|
E|----------4---------2-----------|----------4-------------2---0---|
       

G|--------------------------------|----0---1---2---1---2---3---4-4-|
D|------------0-------0---1---2---|4-------------------------------|
A|2-2---2---2-----4---------------|--------------------------------|
E|--------------------------------|--------------------------------|
       

G|4---4-----2-----2-------2---4-4-|4---4-------2---4---2-----------|
D|--------4-----------4-----------|--------4---------------4---2---|
A|--------------------------------|--------------------------------|
E|--------------------------------|--------------------------------|
       

G|--------------------------------|--------------------------------|
D|--------------------------------|--------------------------------|
A|2-----2-----0---2-------0---1---|2-----2-----0---2-0-----0---1---|
E|----------4---------2-----------|----------4---------2-----------|
       

G|--------------------------------|--------------------------------|
D|--------------------------------|--------------------------------|
A|2-2---2-----0---2-0-----0---1---|2-----2-----0---2-------0-------|
E|----------4---------2-----------|--------------------2-------2---|
 
 
G|--------------------------------|------------1---2---1---2---4---|
D|------------0---1-------0---1---|----2---2-----------------------|
A|----2---4-----------4-----------|--------------------------------|
E|4-------------------------------|--------------------------------|
   
   
G|4-4---4---4-2---4-4-----2---3---|4-4---4---4-2---4-4-----2---3---|
D|--------------------4-----------|--------------------4-----------|
A|--------------------------------|--------------------------------|
E|--------------------------------|--------------------------------|
 
[Chorus 1]
        
G|--------------------------------|--------------------------------|
D|----------------0-0-0---0---2---|----2-----2-0---------------0---|
A|----2-------2-------------------|----------------2-2-2---4-------|
E|3-------------------------------|--------------------------------|
 
       
G|--------------------------------|--------------------------------|
D|2---2-----2-0---2-------0---2---|2-2-2-2-2---2-----------0---0---|
A|--------------------2-----------|----------------2---------------|
E|--------------------------------|--------------------------------|
 
       
G|--------------------------------|--------------------------------|
D|2-----2-----0---2-------0---1---|0-----0-----0---0-0-0---0---0---|
A|--------------------2-----------|--------------------------------|
E|--------------------------------|--------------------------------|
 

      
G|--------------------------------|--------------------------------|
D|--------------------------------|------------------------0---2---|
A|4-4---4---4-4---4-4---4---4-----|2-2-----2-2-----2-2-2-----------|
E|--------------------------------|--------------------------------|
 

        
G|--------------------------------|--------------------------------|
D|2-----2-2---0---2-------0---2---|2-----2---2-0---2-------0---1---|
A|--------------------2-----------|--------------------2-----------|
E|--------------------------------|--------------------------------|
 
 
      
G|--------------------------------|--------------------------------|
D|2-2-2-2-----2-----------0---2---|2---2-2-----0---2-------0---2---|
A|--------------------2-----------|--------------------2-----------|
E|--------------------------------|--------------------------------|
 

        
G|--------------------------------|4-4-2---------------------------|
D|4-----4-----4-----------4-------|--------4---2---0---------------|
A|--------------------------------|--------------------2---0---2---|
E|----2-----2-----2-2---------2---|--------------------------------|
 
        
G|--------------------------------|--------------------------------|
D|--------------------------------|--------------------------------|
A|2-----2-----0-----0-----0---1---|2-2---2-----0-----0-----0---1---|
E|----------4---------2-----------|----------4---------2-----------|
 
 
       
G|4---------------2---------------|--------------------------------|
D|--------------------------------|4---------------0---2---4-------|
A|--------------------------------|--------------------------------|
E|--------------------------------|--------------------------------|
 

[Verse 2]
       
G|--------------------------------|--------------------------------|
D|--------------------------------|--------------------------------|
A|2-----2-----0---2-------0---1---|2-2---2-----0---2-0-----0---1---|
E|----------4---------2-----------|----------4---------2-----------|
 
 
       
G|--------------------------------|--------------------------------|
D|--------------------------------|--------------------------------|
A|2-2---2-----0---2-2-----0---1---|2-2---2-----0---2-2-----0---1---|
E|----------4---------2-----------|----------4---------2-----------|
 

       
G|--------------------------------|--------------------------------|
D|--------------------------------|--------------------------------|
A|2-2---2-----0---2-------0---1---|2-2---2-----0-----2-----0---1---|
E|----------4---------2-----------|----------4---------2-----------|
 
       
G|--------------------------------|--------------------------------|
D|--------------------------------|--------------------------------|
A|2-----2-----0---2-2-----0---1---|2-2-2-2-----0---2---0-----------|
E|----------4---------2-----------|----------4-------------2---0---|
 

      
G|--------------------------------|----0---1---2---1---2---3---4-4-|
D|------------0-------0---1---2---|4-------------------------------|
A|2-2---2---2-----4---------------|--------------------------------|
E|--------------------------------|--------------------------------|
 

      
G|4---4-----2-----2-------2---4-4-|4---4-------2---4---2---4-------|
D|--------4-----------4-----------|--------4-----------------------|
A|--------------------------------|--------------------------------|
E|--------------------------------|--------------------------------|
 

       
G|0-----0-----0-------------------|--------------------------------|
D|--------------------------------|2-----2-----2-------------------|
A|--------------------------------|--------------------------------|
E|--------------------------------|--------------------------------|
 
 
[Bridge]   
G|--------------------------------|----------------2-------4-------|
D|------------0-----------2-------|----4---------------------------|
A|2-------------------------------|--------------------------------|
E|--------------------------------|--------------------------------|
 
       
G|--------------------------------|----------------2-------4-------|
D|------------0-----------2-------|----4---------------------------|
A|2-------------------------------|--------------------------------|
E|--------------------------------|--------------------------------|
 
       
G|--------------------------------|----------------2---2---4-------|
D|------------0-----------2-------|----4-------4-------------------|
A|2-------------------------------|--------------------------------|
E|--------------------------------|--------------------------------|
 
       
G|--------------------------------|----------------2-------4-------|
D|------------0-----------2-------|----4-------4-------------------|
A|2-------------------------------|--------------------------------|
E|--------------------------------|--------------------------------|
 
      
G|------------------------2---4---|------------------------2---4---|
D|------0-----2-------4-----------|------0-----2-------4-----------|
A|2-------------------------------|2-------------------------------|
E|--------------------------------|--------------------------------|
 
       
G|------------------------2---4---|------------------------2---4---|
D|------0-----2-------4-----------|----0---2---4-------4-----------|
A|2-------------------------------|2-------------------------------|
E|--------------------------------|--------------------------------|
 
        
G|----------------2---4---2-------|----------------2---4---2-------|
D|----0---2---4-------------4-----|----0---2---4-------------4-----|
A|2-------------------------------|2-------------------------------|
E|--------------------------------|--------------------------------|
 
        
G|----------------2---4---2-------|----------------2---4---2-------|
D|----0---2---4-------------4-----|----0---2---4-------------4---4-|
A|2-------------------------------|2-------------------------------|
E|--------------------------------|--------------------------------|
 
        
G|----2-4-2---------2-4-2---------|2-4-2---------2-4-2-------4---4-|
D|--4-------4-4---4-------4-4---4-|------4-4---4-------4-4---------|
A|--------------------------------|--------------------------------|
E|--------------------------------|--------------------------------|
 
         
G|2-----2---4-2---2---4---4-2---2-|--4---4-2-------2-2-2-2-4-------|
D|--4-----------------------------|------------4-------------------|
A|--------------------------------|--------------------------------|
E|--------------------------------|--------------------------------|
 
         
G|--------------------------------|------------------------4-------|
D|--------------------------------|--------------------------------|
A|--------------------------------|--------------------------------|
E|--------------------------------|--------------------------------|
 
      
G|--------2-----------------------|--------------------------------|
D|------------------------4-------|--------0-------2-------4-------|
A|--------------------------------|--------------------------------|
E|--------------------------------|--------------------------------|
 
  
[Verse 3]     
G|--------------------------------|--------------------------------|
D|--------------------------------|--------------------------------|
A|2-------2-------2-------2-------|2-------2-------2-------2-------|
E|--------------------------------|--------------------------------|
 
       
G|--------------------------------|--------------------------------|
D|--------------------------------|--------------------------------|
A|2-------2-------2-------2-------|2-------2-------2-------2-------|
E|--------------------------------|--------------------------------|
 
         
G|--------------------------------|--------------------------------|
D|--------------------------------|--------------------------------|
A|2-------2-------2-------2-------|2-------2-------2-------2-------|
E|--------------------------------|--------------------------------|
 
        
G|--------------------------------|--------------------------------|
D|--------------------------------|--------------------------------|
A|2-------2-------2-------2-------|2-------2-------2-------2-------|
E|--------------------------------|--------------------------------|
 
        
G|--------------------------------|--------------------------------|
D|--------------------------------|--------------------------------|
A|2-------2-------2-------2-------|2-------2-------2-------2-------|
E|--------------------------------|--------------------------------|
 
        
G|--------------------------------|--------------------------------|
D|--------------------------------|--------------------------------|
A|2-------2-------2-------2-------|2-------2-------2-------2-------|
E|--------------------------------|--------------------------------|
 
        
G|--------------------------------|--------------------------------|
D|--------------------------------|--------------------------------|
A|--------------------------------|--------------------------------|
E|3-------3-------3-------3-------|0-------0-------0-------0-------|
 
        
G|--------------------------------|--------------------------------|
D|--------------------------------|--------------------------------|
A|2---2---2---2---2---2---2---2---|2---2---2---2---2---2---2---2---|
E|--------------------------------|--------------------------------|
 
 
[Chorus 2]       
G|--------------------------------|------------1---2---1---2---4---|
D|--------0-----------0-------2---|----2---4-----------------------|
A|----------------2-------2-------|--------------------------------|
E|2---4-------4-------------------|--------------------------------|
 
        
G|4-4---4---4-2---4-4-----2---3---|4-4---4---4-2---4-4-----2-------|
D|--------------------4-----------|--------------------4-----------|
A|--------------------------------|--------------------------------|
E|--------------------------------|--------------------------------|
 
        
G|--------------------------------|--------------------------------|
D|--------0-----------0-------2---|--2---2-0-----0-----0---2---2---|
A|----------------2-------2-------|----------------2---------------|
E|2---4-------4-------------------|--------------------------------|
 
        
G|--------------------------------|--------------------------------|
D|--2---2-0-----0-----0---2---2---|--2---2-0-----0-----0---2---2---|
A|----------------2---------------|----------------2---------------|
E|--------------------------------|--------------------------------|
 
         
G|--------------------------------|--------------------------------|
D|--2---2-0-----0-----0---2-------|0---0-0---0-----0-0---0---0-----|
A|----------------2---------------|--------------------------------|
E|--------------------------------|--------------------------------|
 
         
G|--------------------------------|--------------------------------|
D|--------------------------------|----------------------0---2-----|
A|4-4---4---4-4---4-4---4---4-----|2-2---2---2-2---2---2-----------|
E|--------------------------------|--------------------------------|
 
        
G|--------------------------------|--------------------------------|
D|2-----2-2---0---2-------0---2---|2---2---1---0-----------0-------|
A|--------------------2-----------|--------------------2-----------|
E|--------------------------------|--------------------------------|
 
        
G|--------------------------------|--------------------------------|
D|2---2-------2-----------0---2---|2---2-2-----0---2-------0---2---|
A|--------------------2-----------|--------------------2-----------|
E|--------------------------------|--------------------------------|
 
       
G|--------------------------------|2---1---------------------------|
D|4---2-4-----4---4---4---0---0---|--------4---2---0---------------|
A|--------------------------------|--------------------4---3---0---|
E|--------------------------------|--------------------------------|
 
 
[Outro]       
G|--------------------------------|--------------------------------|
D|--------------------------------|--------------------------------|
A|2-----2-----0-----0-----0---1---|2-2---2-----0-----0-----0---1---|
E|----------4---------2-----------|----------4---------2-----------|
 
       
G|--------------------------------|--------------------------------|
D|--------------------------------|--------------------------------|
A|2-2---2---2-0---2-2-----0---1---|2-2---2-----0---2-2-----0---1---|
E|--------------------2-----------|----------2---------2-----------|
 
       
G|--------------------------------|--------------------------------|
D|--------------------------------|--------------------------------|
A|2-2---2-----0-----------0---1---|2-2---2---0-2-----2-----0---1---|
E|------------------2-2-----------|--------------------2-----------|
 
        
G|--------------------------------|--------------------------------|
D|--------------------------------|--------------------------------|
A|2---2-2---2-0---2-2-----0---1---|2-2---2---0-----2---0-----------|
E|--------------------2-----------|------------2-------------3-----|
 
       
G|--------------------------------|--------------------------------|
D|----------------------------2---|--------------------------------|
A|2-------------------------------|----2---------------------------|
E|------3-------------------------|------------0-------------------|

            
            
Suggest correction
Creating personal tab
Creating personal tab
You can edit any tab online and save it as your Personal.

You can edit, replace or remove any tab part or add personal notes – all changes will be seen only by you.

Personal tabs can be accessed anytime from any device, even offline.
Learn more »
Give kudos to tab author, rate the tab!
1 2 3 4 5
comments
print report bad tab
1 comment total.
0 reply
cbuck66 79 Jul 06, 2017 09:46 AM

Thanks for this!

guest
You may want to rate the tab now too:
select rating
Wanna post a correction for this tab? Suggest correction