Oops, an error
Loading. Please wait.

No Action bass

1,669 views 6 this week
no commentswrite comment
1 2 3 4 5
2 more votes to show rating
add to favorites
×
Save as Personal and add changes to this tab that will be seen only by you. Learn more ›
×
You can save this tab as Personal to edit and correct it or add notes. All changes will be seen only by you. Learn more »
launch autoscroll
font size
0
reset
guitar tuner
edit
Autoscroll
slow
fast
+/-
esc
set tempo
stop
-----------------------------------------------------------------
No Action - Elvis Costello & the Attractions
-----------------------------------------------------------------

Tabbed By : Chris Compton	
e-mail: SkullChris@gmail.com	

Tuning: Standard


Intro/Verse x3
G|--------------------|
D|-22222222-----------|
A|----------22222222--|
E|--------------------|

Pre-Chorus (I'm not a telephone junkie...)
G|--22-1---------------------------------2-1----------------------|
D|------4-2222-1h22-1h22-1h22-----1-2222-----4-2------------------|
A|----------------------------22-4--------------22222222222222222-|
E|----------------------------------------------------------------|

Pre-Chorus cont.
G|--22-1--------22-1----------------------------------|
D|------4-2222------4-2222-----1----------------11-22-|
A|-------------------------2-4---22222222222-44-------|
E|----------------------------------------------------|

Chorus 
G|-----------------------------------------------------------|
D|-22222222--------------------------------------------------|
A|----------22222222-44444444--------------------------------|
E|----------------------------44444444-55555555-22222222-----|

Chorus cont. (Everytime I phone you...)
G|---------------------------------|
D|-------2--------2--------------1-|
A|--2222---2-2222---2-22222222-4---|
E|---------------------------------|

Verse x4

2nd Pre-Chorus
G|--22-1----------------------22-1-------2-1----|
D|------4-2222-1h22-1h22-1h22-----4-2222----4-2-|
A|----------------------------------------------|
E|----------------------------------------------|

2nd Pre-Chorus cont.
G|------------------------------|
D|-----------1-2222----1-2------|
A|-2222-22-4--------2-4----2222-|
E|------------------------------|

2nd Pre-Chorus, Part 2 (And I think about the way...) x6
G|--2222-------|
D|-------2222--|
A|-------------|
E|-------------|

2nd Pre-Chorus Part 3 (But I always disconnect...)
G|---------------------------------|
D|---------------------------11-22-|
A|-----------1-2222222222-44-------|
E|--22222222-----------------------|

Chorus x2

End on B

The last choruses are a little different rhythmically, but trust me you can figure 'em out.
I tried my best to make this as fool proof as possible without being too repetitive.
Good luck and have fun! -Chris




| /  slide up
| \  slide down
| h  hammer-on
| p  pull-off
| ~  vibrato
| +  harmonic
| x  Mute note


            
            
Suggest correction
Creating personal tab
Creating personal tab
You can edit any tab online and save it as your Personal.

You can edit, replace or remove any tab part or add personal notes – all changes will be seen only by you.

Personal tabs can be accessed anytime from any device, even offline.
Learn more »
Give kudos to tab author, rate the tab!
1 2 3 4 5
comments
print report bad tab
guest
Wanna post a correction for this tab? Suggest correction