Oops, an error
Loading. Please wait.

The Imposter bass

1,218 views 3 this week
1 commentread comment
1 2 3 4 5
x 3
add to favorites
×
Save as Personal and add changes to this tab that will be seen only by you. Learn more ›
×
You can save this tab as Personal to edit and correct it or add notes. All changes will be seen only by you. Learn more »
launch autoscroll
font size
0
reset
guitar tuner
edit
Autoscroll
slow
fast
+/-
esc
set tempo
stop
-----------------------------------------------------------------
The Imposter - Elvis Costello & the Attractions
-----------------------------------------------------------------

Tabbed By : Chris Compton
e-mail: SkullChris@gmail.com

Tuning: Standard


Main Riff x4
G|-----------------------------|
D|---0-1-22-0------------------|
A|-33---------3-00--------0-2--|
E|-----------------3-11-3------|

Verse
G|-------------------------------------------------------|
D|-------------------------------------------------33333-|
A|---------------33333-33333-----------------------------|
E|--33333-33333---------------33333-33333-11111----------|

Verse cont.
G|-----------------------5-0-----------------------------------|
D|----3-3-3-3--5-5-5-5-------2----------333-222-00-2-3-555-2-0-|
A|-----------------------------3-------------------------------|
E|-- 1-1-1-1--3-3-3-3------------3-0-1-------------------------|

Main Riff x3
Verse x1
Main Riff x3

Pre Bridge
G|---5-5-5-5-5-5-4-4--|
D|--------------------|
A|--3-3-3-3-3-3-2-2---|
E|--------------------|

Bridge
G|--------------------------------------------------------------|
D|-------------2--4--5/--9--7---------7--9------------5-5-5-5---|
A|-0--2--3--5------------------8----8------10----10\------------|
E|--------------------------------8-----------10-----3-3-3-3----|

Main Riff x2
Verse x1

Outro Riff x6
G|--------------------------|
D|---0-1-22-0-----------333-|
A|-33---------3-00----------|
E|-----------------3-11-----|

98% sure this is correct.  Keep your fingers limber and have fun! -Chris

            
            
Suggest correction
Creating personal tab
Creating personal tab
You can edit any tab online and save it as your Personal.

You can edit, replace or remove any tab part or add personal notes – all changes will be seen only by you.

Personal tabs can be accessed anytime from any device, even offline.
Learn more »
Give kudos to tab author, rate the tab!
1 2 3 4 5
comments
print report bad tab
1 comment total.
0 reply
hodge19772003 10 May 07, 2014 01:26 PM

Perfect....and what a song!

guest
Wanna post a correction for this tab? Suggest correction