Oops, an error
Loading. Please wait.
We have an official Fever tab made by UG professional guitarists. Check out the tab »
×
23,914 views 18 this week
1 commentread comment
1 2 3 4 5
1 last vote to show rating
add to favorites
×
Save as Personal and add changes to this tab that will be seen only by you. Learn more ›
×
You can save this tab as Personal to edit and correct it or add notes. All changes will be seen only by you. Learn more »
launch autoscroll
font size
0
reset
guitar tuner
edit
Autoscroll
slow
fast
+/-
esc
set tempo
stop
Author
Difficulty
Just want to see if this gets posted. If it does I'll submit a few more.
The timing is a little off, but this is the first time I tried to write
in tab format. This is basicaly the entire song!

Ežbeg beg

      Intro
G-----------------------------------------------------------------------|
D----------------------5------------------------------------------------|
A--3----6----3---6---3---2--3----8-6--5--2------------------------------|
E-----------------------------------------------------------------------|


G-----------------------------------------------------------------------|
D-------------------5---------------------------------------------------|
A--3----6----3----6---------3----6----3----6---3-------3----------------|
E-------------------------------------------------3--3------3-----------|
   |__play 2 times___|
      Never know....
G-----------------------------------------------------------------------|
D-------------------5---------------------------------------------------|
A--3----6----3----6-----3----6----3----6---3---X------------------------|
E----------------------------------------6------------------------------|


G-----------------------------------------------------------------------|
D-----------------------------------------------------------------------|
A-2-3----3----6---------3---8-6--5--2-----------------------------------|
E---------------3---3---------------------------------------------------|


G-----------------------------------------------------------------------|
D-------------------5---------------------------------------------------|
A--3----6----3----6---------3----6----3----6---3-------3----------------|
E-------------------------------------------------3--3------3-----------|
   |__play 2 times___|

G-----------------------------------------------------------------------|
D-------------------5---------------------------------------------------|
A--3----6----3----6-----------------------------------------------------|
E-----------------------------------------------------------------------|


G------------------------------------------------------------------------|
D-------------------5----------------------------------------------------|
A--3----6----3----6------3---x-------------------------------------------|
E---------------------------------3--------------------------------------|


G-----------------------------------------------------------------------|
D-----------------------------------------------------------------------|
A-2-3-----------3---8-6--5--2-------------------------------------------|
E--------3-3------------------------------------------------------------|


G-----------------------------------------------------------------------|
D-------------------5---------------------------------------------------|
A--3----6----3----6---------3----6----3----66--3-------3----------------|
E-------------------------------------------------3--3------------------|
   |__play 2 times___|
everybody's.....
G-----------------------------------------------------------------------|
D------5------------------------5---------------------------------------|
A----6----3----6----3----6----3---2-3--8-6--5--2------------------------|
E-----------------------------------------------------------------------|


G-----------------------------------------------------------------------|
D-------------------5---------------------------------------------------|
A--3----6----3----6---------3----6----3----6---3-------3----------------|
E-------------------------------------------------3--3------3-----------|
   |__play 2 times___|
Romeo loved....

G-----------------------------------------------------------------------|
D-------------------5---------------------------------------------------|
A--3----6----3----6-----------------------------------------------------|
E-----------------------------------------------------------------------|


G------------------------------------------------------------------------|
D-------------------5----------------------------------------------------|
A--3----6----3----6------3---x-------------------------------------------|
E------------------------------------------------------------------------|


G-----------------------------------------------------------------------|
D-------------------5------------5--------------------------------------|
A-3----6----6----3--------3----6----------------------------------------|
E-----------------------3-----------------------------------------------|


G-----------------------------------------------------------------------|
D-------------------5---------------------------------------------------|
A--3----6----3----6---------3----6----3----6---3-------3----------------|
E-------------------------------------------------3--3-------3----------|
   |__play 2 times___|
Captain....

G-----------------------------------------------------------------------|
D-------------------5---------------------------------------------------|
A--3----6----3----6-----------------------------------------------------|
E-----------------------------------------------------------------------|


G-----------------------------------------------------------------------|
D-------------------5---------------------------------------------------|
A--3----6----3----6------3---x------------------------------------------|
E-----------------------------------------------------------------------|


G-----------------------------------------------------------------------|
D--------------------------------5--------------------------------------|
A-3---6----6----3----------3----6---------------------------------------|
E-------------------3-3-------------------------------------------------|

G-----------------------------------------------------------------------|
D---------------------------5-------------------------------------------|
A--3----6----3----66----3------2-3---8-6--5--2--------------------------|
E---------------------------3--3-3--------------------------------------|


G-----------------------------------------------------------------------|
D-------------------5-------------------------5-------------------------|
A--3----6----3----6---------3----6----3----6----------3-----------------|
E-------------------------------------------------3--3-----3------------|
   |__play 2 times___|

G-----------------------------------------------------------------------|
D-------------------5---------------------------------------------------|
A--3----6----3----6-----------------------------------------------------|
E-----------------------------------------------------------------------|


G-----------------------------------------------------------------------|
D-------------------5---------------------------------------------------|
A--3----6----3----6------3---x---3----6----6----3-----------------------|
E-----------------------------------------------------------------------|


G-----------------------------------------------------------------------|
D-----------------------------------------------------------------------|
A----------3----66---3--------------------------------------------------|
E-----3-3---------------------------------------------------------------|
   |__play untill the end ___|

            
            
Suggest correction
Creating personal tab
Creating personal tab
You can edit any tab online and save it as your Personal.

You can edit, replace or remove any tab part or add personal notes – all changes will be seen only by you.

Personal tabs can be accessed anytime from any device, even offline.
Learn more »
Give kudos to tab author, rate the tab!
1 2 3 4 5
comments
print report bad tab
1 comment total.
0 reply
Damd 10 May 09, 2007 05:51 AM

sounds really good, but i would change some tones from higher strings, so its easier to play A6->D1; D5->G0; A8->D3; A5->D0

guest
You may want to rate the tab now too:
select rating
Wanna post a correction for this tab? Suggest correction