Oops, an error
Loading. Please wait.

Suspicion bass

2,507 views 6 this week
no commentswrite comment
1 2 3 4 5
2 more votes to show rating
add to favorites
×
Save as Personal and add changes to this tab that will be seen only by you. Learn more ›
×
You can save this tab as Personal to edit and correct it or add notes. All changes will be seen only by you. Learn more »
launch autoscroll
font size
0
reset
guitar tuner
edit
Autoscroll
slow
fast
+/-
esc
set tempo
stop
"Suspicion"
by Elvis Presley
From the album 'Pot Luck with Elvis' (1962)
bass tabs by artrush@gmail.com

G-----------------------------------------------------|
D-----------------------4-2--2------0h2--4-2-4-2--0---|
A-5--5--0h2-4--5-5---0h2---------0h2----------------0-|
E-----------------------------------------------------|(rpt)

Every time you kiss me I'm still not certain that you love me
G-----------------------------------------------------|
D-----------------------4-2--2------0h2--4-2-4-2--0---|
A-5--5--0h2-4--5-5---0h2---------0h2----------------0-|
E-----------------------------------------------------|

Every time you hold me I'm still not certain that you care
G-------------------------------------------------------|
D-2--2-----0h2---4-2-4-2--0-----------------------------|
A-------0h2-----------------2--5--5--0h2-4--5--5--0h2-4-|
E-------------------------------------------------------|

Though you keep on saying you really, really, really love me
Do you speak the same words to someone else when I'm not there

Suspicion, torments my heart, suspicion, keeps us apart
G-------------------------------------------------|
D-------------------------------------------------|
A--2--2---2-2-2--0-0-0--2--2---2-2-2--0-0-0--2--2-|
E-------------------------------------------------|

Why torture me
G---------------------|
D-2---2-2-0-0---------|
A-------------4-4-2-2-|
E---------------------|

rest of song as above

            
            
Suggest correction
Creating personal tab
Creating personal tab
You can edit any tab online and save it as your Personal.

You can edit, replace or remove any tab part or add personal notes – all changes will be seen only by you.

Personal tabs can be accessed anytime from any device, even offline.
Learn more »
Give kudos to tab author, rate the tab!
1 2 3 4 5
comments
print report bad tab
guest
Wanna post a correction for this tab? Suggest correction