Oops, an error
Loading. Please wait.

Walk A Mile In My Shoes Live chords

694 views 9 this week
no commentswrite comment
1 2 3 4 5
1 last vote to show rating
add to favorites
×
Save as Personal and add changes to this tab that will be seen only by you. Learn more ›
×
You can save this tab as Personal to edit and correct it or add notes. All changes will be seen only by you. Learn more »
launch autoscroll
font size
0
reset
transpose
0
reset
simplify chords
display chords
guitar tuner
edit
Autoscroll
slow
fast
+/-
esc
set tempo
stop
Author
Difficulty
maguri [tm] 32,554
intermediate
Strumming
There is no strumming pattern for this song yet. and get +5 IQ
---------------------------------------------------------------------------
            Walk a Mile in My Shoes – Elvis Presley
---------------------------------------------------------------------------
Tabbed by: maguri
Tuning: Standard

Elvis Presley 
Walk a Mile in My Shoes (1970)
(Joe South)

From: “On Stage”

---------------------------------------------------------------------------

[Intro] / [Outro]
  A                                B
  1   +   2   +   3   +   4   +    1   +   2   +   3   +   4   +   
e|--------------------------------|--------------------------------|
B|--------2-----2h3-2-------------|--------4-----4h5-4-------------|
G|----2-----------------2h4p2-----|----4-----------------4h6p4-----|
D|2-----------2---------------2---|4-----------4---------------4---|
A|--------------------------------|--------------------------------|
E|--------------------------------|--------------------------------|
  D                                A
  1   +   2   +   3   +   4   +    1   +   2   +   3   +   4   +   
e|--------------------------------|--------------------------------|
B|--------7-----7h8-7-------------|--------2-----2h3-2-------------|
G|----7-----------------7h9p7-----|----2-----------------2h4p2-----|
D|7-----------7---------------7---|2-----------2---------------2---|
A|--------------------------------|--------------------------------|
E|--------------------------------|--------------------------------|

---------------------------------------------------------------------------

[Intro}
| A | B | D | A |


[Verse]
           A      Asus4 A
If I could be you
             A     Asus4 A
If you could be me
             B     Bsus4 B |  B  |
For just one hour
            D
If we could find a way
         E                 A   Asus4 A | A  Asus4 A   |
To get inside each other’s mind


[Verse]
              A      Asus4 A
If you could see you 
           A    Asus4 A
Through my eyes
                B     Bsus4 B |  B  |
Instead of your ego 
                D
I believe you'd be, I believe you'd be 
             E                    A   Asus4 A |  A  |
Surprised to see that you've been blind       (break)


[Chorus]
                  A
Walk a mile in my shoes
                       D
Just walk a mile in my shoes
            E                     D
Before you abuse, criticize and accuse
                  A       |  A  |
Walk a mile in my shoes   (break)


[Verse]
          A             Asus4 A
Now if we spend the day
         A     Asus4 A
Throwing stones 
        B     Bsus4 B |  B  |
At one another
              D
Cause I don't think, 'cause I don't think
           E                     A   Asus4 A | A  Asus4 A   |
Or wear my hair the same way you do


[Verse]
        A      Asus4 A
Well, I may be 
       A      Asus4 A
Common people
             B     Bsus4 B |  B  |
But I'm your brother
             D
And when you strike out
                 E
You're trying to hurt me
             A   Asus4 A        |  A  |
It's hurting you,        Lord, have mercy


[Chorus]
                  A
Walk a mile in my shoes
                       D
Just walk a mile in my shoes
            E                     D
Before you abuse, criticize and accuse
                  A       |  A  |
Walk a mile in my shoes   (break)


[Verse]
              A      Asus4 A
Now there are people 
        A      Asus4 A
On reservations
               B     Bsus4 B |  B  |
And out in the ghetto
            D                            E
And brother there, but, for the grace of god
           A   Asus4 A | A  Asus4 A   |
Go you and I


[Verse]
     A      Asus4 A
If I only 
    A      Asus4 A
Had wings 
            B     Bsus4 B |  B  |
Of a little angel
                    D
Don't you know, I'd fly
                E
To the top of a mountain
             A         A
And then I'd cry, cry, cry


[Chorus]
                  A
Walk a mile in my shoes
                       D
Just walk a mile in my shoes
            E                     D
Before you abuse, criticize and accuse
                  A    |  A  |
Walk a mile in my shoes


[Chorus]
                  A
Walk a mile in my shoes
                       D
Just walk a mile in my shoes
            E                     D
Before you abuse, criticize and accuse
                                (break)
                 [ A ]
Walk a mile in my shoes


[Coda]
| A | B | D | A 


            
            
Suggest correction
Creating personal tab
Creating personal tab
You can edit any tab online and save it as your Personal.

You can edit, replace or remove any tab part or add personal notes – all changes will be seen only by you.

Personal tabs can be accessed anytime from any device, even offline.
Learn more »
Give kudos to tab author, rate the tab!
1 2 3 4 5
comments
print report bad tab
guest
You may want to rate the tab now too:
select rating
Wanna post a correction for this tab? Suggest correction