Oops, an error
Loading. Please wait.

Filthy tab

version 1
version 1

Whole song

by Elysia
3,258 views 1 this week
10 commentsread comments
1 2 3 4 5
x 3
add to favorites
×
Save as Personal and add changes to this tab that will be seen only by you. Learn more ›
×
You can save this tab as Personal to edit and correct it or add notes. All changes will be seen only by you. Learn more »
launch autoscroll
font size
0
reset
how to read this tab
guitar tuner
edit
Autoscroll
slow
fast
+/-
esc
set tempo
stop
Author
Difficulty
http://www.myspace.com/95822996

drop B tuning: (low to high) B F# B E G# C#

0:01
|----------------------|----------------------|------------------|------------------|
|----------------------|----------------------|------------------|------------------|
|-----12---------------|----12----------------|---12-------------|------------------|
|-----11---------------|----11----------------|---11-------------|-------5*---------|
|-----10---------------|----10----------------|---10-------------|-----4*-----------|
|---------0-0-0-0------|--------0-0-0-0-------|------0-0-0-0-----|---5*-------------|
                                                                                         
                                                                                    2 times
|----------------------|----------------------|------------------|------------------|
|----------------------|----------------------|------------------|------------------|
|-----12---------------|----12----------------|------------------|------------------|
|-----11---------------|----11----------------|------------------|------------------|
|-----10---------------|----10----------------|------------------|------------------|
|---------0-0-0-0------|--------0-0-0-0-------|--8-11-8-11-8-11--|--7-10-7-10-7-10--|

0:13
|----------------------|
|----------------------|
|-----12~~~------------|
|-----11~~~------------|
|-----10~~~------------|
|----------------------|

0:18
|----------------------|
|----------------------|
|----------------------|
|------0x--------------|
|------0x--------------|
|------0x--------------|

0:20
|----------------------|----------------------|------------------|------------------|
|----------------------|----------------------|------------------|------------------|
|----------------------|----------------------|------------------|------------------|
|----------------------|----------------------|--5-4-3-----------|------------------|
|------4-5-3-4---------|-------4-5-3-4--------|------------------|------------------|
|--0-0-----------------|---0-0----------------|------------------|------------------|

|----------------------|----------------------|------------------|------------------|
|----------------------|----------------------|------------------|------------------|
|----------------------|----------------------|------------------|------------------|
|----------------------|----------------------|------------------|------------------|
|------4-5-3-4---------|----------------------|------------------|------------------|
|--0-0-----------------|--0-0---8-7-3---------|------------------|------------------|
                                                              ^^^^^
                                                              tremolo pick
|----------------------|----------------------|------------------|------------------|
|----------------------|----------------------|------------------|------------------|
|----------------------|----------------------|------------------|------------------|
|----------------------|----------------------|--5-4-3-----------|------------------|
|------4-5-3-4---------|-------4-5-3-4--------|------------------|------------------|
|--0-0-----------------|---0-0----------------|------------------|------------------|

|----------------------|----------------------|------------------|------------------|
|----------------------|----------------------|------------------|------------------|
|----------------------|----------------------|------------------|------------------|
|----------------------|--------5-------2*----|------------------|------------------|
|------4-5-3-4---------|--------5-------------|------------------|------------------|
|--0-0-----------------|---0-0--5-0-0---------|------------------|------------------|


|----------------------|----------------------|------------------|------------------|
|----------------------|----------------------|------------------|------------------|
|----------------------|----------------------|------------------|------------------|
|----------------------|----------------------|--5-4-3-----------|------------------|
|------4-5-3-4---------|-------4-5-3-4--------|------------------|------------------|
|--0-0-----------------|---0-0----------------|------------------|------------------|

|----------------------|----------------------|------------------|------------------|
|----------------------|----------------------|------------------|------------------|
|----------------------|----------------------|------------------|------------------|
|----------------------|----------------------|------------------|------------------|
|------4-5-3-4---------|----------------------|------------------|------------------|
|--0-0-----------------|--0-0---8-7-3---------|------------------|------------------|
                                                              ^^^^^
                                                              tremolo pick
|----------------------|----------------------|------------------|------------------|
|----------------------|----------------------|------------------|------------------|
|----------------------|----------------------|------------------|------------------|
|----------------------|----------------------|--5-4-3-----------|------------------|
|------4-5-3-4---------|-------4-5-3-4--------|------------------|------------------|
|--0-0-----------------|---0-0----------------|------------------|------------------|

|----------------------|----------------------|------------------|------------------|
|----------------------|----------------------|------------------|------------------|
|----------------------|----------------------|------------------|------------------|
|----------------------|--------5-------2*----|------------------|------------------|
|------4-5-3-4---------|--------5-------------|------------------|------------------|
|--0-0-----------------|---0-0--5-0-0---------|------------------|------------------|

0:37 (this 2 step slows down a bit in the song)
|----------------------|----------------------|------------------|------------------|
|----------------------|----------------------|------------------|------------------|
|----------------------|----------------------|------------------|------------------|
|--5-5-5-----4-4-4-----|-3-3-3-------1-0-4----|------------------|------------------|
|--5-5-5-2x--4-4-4-2x--|-3-3-3-2x----1-0-4--3*-------------------|------------------|
|--5-5-5-----4-4-4-----|-3-3-3-------1-0-4----|------------------|------------------|
                  ^
           two times ( im lazy and wont write down all the triplets)                     
                                                       4 times

|----------------------|----------------------|------------------|------------------|
|----------------------|----------------------|------------------|------------------|
|----------------------|----------------------|------------------|------------------|
|--5-5-5-----4-4-4-----|-3-3-3---1-0-4-3-1-0-4-------------------|------------------|
|--5-5-5-2x--4-4-4-2x--|-3-3-3---1-0-4-3-1-0-4--3*---------------|------------------|
|--5-5-5-----4-4-4-----|-3-3-3---1-0-4-3-1-0-4-------------------|------------------|

1:08
|---------------------------------------------------------------------------|
|-----------------------------------------------------12p9------------------|
|-----------------------------------------------7h10------------------------|
|---------------------------------------------------------------------------|   4 times
|---------------------------------------------------------------------------|
|--4-4-7--4-4-7--3-3-6--3-3-6--2-2-5--2-2-5---------------------------------|

1:17
|---------------------------------------------------------------------------|
|---------------------------------------------------------------------------|
|---------------------------------------------------------------------------|
|--5--0-0-0--0-0-0-----------------5--0-0-0--0-0-0--------------------------|
|--5--0-0-0--0-0-0-----------------5--0-0-0--0-0-0--------------------------|
|--5--0-0-0--0-0-0-----------------5--0-0-0--0-0-0--------------------------|

1:26
|---------------------------------------------------------------------------|
|---------------------------------------------------------------------------|
|---------------------------------------------------------------------------|
|--0-0-0-0-0-0-0--0-0-0-0-0-0-0--0-0----0-0-0-0-0-0-0--0-0-0-0-0-0-0--0-0---|  2 times
|--0-0-0-0-0-0-0--0-0-0-0-0-0-0--0-0----0-0-0-0-0-0-0--0-0-0-0-0-0-0--0-0---|
|--0-0-0-0-0-0-0--0-0-0-0-0-0-0--0-0----0-0-0-0-0-0-0--0-0-0-0-0-0-0--0-0---|

1:42
|---------------------------------------------------------------------------|
|---------------------------------------------------------------------------|
|---------------------------------------------------------------------------|
|---------------------------------------------------------------------------|
|--------------------3h6p3--3h6p3--------------------------3h6p3--3h6p3-----|
|--0-7-10-7-0-7-10-7------7-------7------0-7-10-7-0-7-10-7------7-------7---|

|---------------------------------------------------------------------------|
|----------------------------------------------------------10h13p10---------|
|------------------------------------------------------9h11--------11-------|
|-------------------------------------4h7-7h10p7--7h10----------------------|
|-------------------3h6p3--3h6p3--3h6-----------9---------------------------|
|-0-7-10-7-0-7-10-7------7------7-------------------------------------------|

|---------------------------------------------------------------------------|
|---------------------------------------------------------------------------|
|---------------------------------------------------------------------------|
|---------------------------------------------------------------------------|
|--------------------3h6p3--3h6p3--------------------------3h6p3--3h6p3-----|
|--0-7-10-7-0-7-10-7------7-------7------0-7-10-7-0-7-10-7------7-------7---|

|---------------------------------------------------------------------------|
|----------------------------------------------------------10h13p10---------|
|------------------------------------------------------9h11--------11-------|
|-------------------------------------4h7-7h10p7--7h10----------------------|
|-------------------3h6p3--3h6p3--3h6-----------9---------------------------|
|-0-7-10-7-0-7-10-7------7------7-------------------------------------------|

|---------------------------------------------------------------------------|
|---------------------------------------------------------------------------|
|---------------------------------------------------------------------------|
|---------------------------------------------------------------------------|
|--------------------3h6p3--3h6p3--------------------------3h6p3--3h6p3-----|
|--0-7-10-7-0-7-10-7------7-------7------0-7-10-7-0-7-10-7------7-------7---|

|---------------------------------------------------------------------------|
|---------------------------------------------------------------------------|
|---------------------------------------------------------------------------|
|---------------------------------------------------------------------------|
|--------------------3h6p3--3h6p3-----------------------------0-0-0--0-0-0--|
|--0-7-10-7-0-7-10-7------7-------7------0-7-10-7-0-7-10-7----0-0-0--0-0-0--|

2:07
|---------------------------------------------------------------------------|
|---------------------------------------------------------------------------|
|---------------------------------------------------------------------------|
|-------------5------------------------------5------------------------------|  4 times
|--0-0-0-0-0--5--0-0-0--0-0-0-----0-0-0-0-0--5--0-0-0--0-0-0----------------|
|--0-0-0-0-0--5--0-0-0--0-0-0-----0-0-0-0-0--5--0-0-0--0-0-0----------------|

|---------------------------------------------------------------------------|
|---------------------------------------------------------------------------|
|---------------------------------------------------------------------------|
|-------------5--------------------------0--0~~~~---------------------------|
|--0-0-0-0-0--5--0-0-0--0-0-0------------1--1~~~~---------------------------|
|--0-0-0-0-0--5--0-0-0--0-0-0------------0--0~~~~---------------------------|

2:28                                                                                     
                                                                      2 times
|---------------------------------------------------------------------------|
|---------------------------------------------------------------------------|
|---------------------------------------------------------------------------|
|--0-1-0-4-3-0-1-0-3-------0-1-0-4------------------------------------------|
|--0-1-0-4-3-0-1-0-3--3*---0-1-0-4------------------------------------------|
|--0-1-0-4-3-0-1-0-3-------0-1-0-4--3-1-------------------------------------|
                                                                       ^^^
                                                                 tremolo pick
2:46
|----------------------|
|----------------------|
|----------------------|
|--0~~~~---------------|
|--0~~~~~--------------|
|--0~~~~~--------------|

2:55
|----------------------|
|----------------------|
|----------------------|
|--0x------------------|
|--0x------------------|
|--0x------------------|

2:56
|---------------------------------------------------------------------------|
|---------------------------------------------------------------------------|
|---------------------------------------------------------------------------|
|---------------------------------------------------------------------------|
|-------0-0-0--0-0-0-------------0-0-0--0-0-0------0-0---0-0----------------|
|-------0-0-0--0-0-0-------------0-0-0--0-0-0------0-0---0-0----------------|

|---------------------------------------------------------------------------|
|---------------------------------------------------------------------------|
|---------------------------------------------------------------------------|
|---------------------------------------------------------------------------|  4 times
|--0-0-0-0-0------0-0-0--0-0-0-------0-0-0--0-0-0-----0-0---0-0-------------|
|--0-0-0-0-0------0-0-0--0-0-0-------0-0-0--0-0-0-----0-0---0-0-------------|

http://www.myspace.com/95822996

            
            
Suggest correction
Creating personal tab
Creating personal tab
You can edit any tab online and save it as your Personal.

You can edit, replace or remove any tab part or add personal notes – all changes will be seen only by you.

Personal tabs can be accessed anytime from any device, even offline.
Learn more »
Give kudos to tab author, rate the tab!
1 2 3 4 5
comments
print report bad tab
10 comments total. Showing first comments.
0 reply
manley 10 Jan 23, 2007 11:55 AM

that's perfect dude. great job!

0 reply
kennyball 72 Jan 31, 2007 12:58 PM

this is my first tab online...I kinda just would rather record myself on youtube cause it took me a while to write the tab...but you're welcome

-1 reply
xmurderoticax 373 Feb 23, 2007 09:14 AM

just a side note, the version of filthy and the whole cd of Masochist for that matter is played in drop C

guest
You may want to rate the tab now too:
select rating
Wanna post a correction for this tab? Suggest correction