Oops, an error
Loading. Please wait.

Heads Or Tails Real Or Not bass

version 1
version 1

Whole song

Interactive

by Emarosa
4,570 views 1 this week
1 commentread comment
1 2 3 4 5
x 3
add to favorites
×
Save as Personal and add changes to this tab that will be seen only by you. Learn more ›
×
You can save this tab as Personal to edit and correct it or add notes. All changes will be seen only by you. Learn more »
launch autoscroll
font size
0
reset
guitar tuner
edit
Autoscroll
slow
fast
+/-
esc
set tempo
stop
Author
Emarosa
Heads or Tails? Real or Not

Dropped C#

This is how i play it. The notes are right, you figure out the rhythm.


F#:----------------------------|
C#:----------------------------|
G#:-----------------77777777\--|
C#:------4-4-44-4-4------------|


  "You loved it when my heart dropped.."
F#:-----------------------------------|
C#:-----------------------------------|
G#:----------2222222---------4444222--|
C#:-00000000--------44444444----------|

F#:-----------------------------------|
C#:-----------------------------------|
G#:----------2222222------------------|
C#:-00000000--------4444444444444444--|


  "Full of content..."
F#:-----------------------|
C#:-0~~-------------------|
G#:-----------------------|
C#:------0~~--2~~--2------|

F#:-----------------------------------------------|
C#:-0~~-0000000-22222222222222222222222222222222--|
G#:-----------------------------------------------|
C#:-----------------------------------------------|

F#:----------------------------------|
C#:----------------------------------|
G#:-/5----/5---------/5----/5--------|
C#:----00----00-00-0----00----00-00--|

F#:-----------------------------------|
C#:-----------------------------------|
G#:-----------------/777777777777777--|
C#:-2222222222222222------------------|


  "Feel yourself drifting; pulled away..."
F#:---------------------------------------------|
C#:---------------------------------------------|
G#:-5-55-5-55-55-5-55-5--------------77777777\--|
C#:---------------------0-0-0-0-0-0-------------|


  "Nothing feels real anymore.."
F#:-------------------------|   x2
C#:-------------------------|
G#:------0000---------------|
C#:-4444------222222444444--|

F#:---------------------------------------------------|   x2
C#:---------------------------------------------------|
G#:-------------000000000000--------------------------|
C#:-444444444444------------222222222222444444444444--|


  "We all need to find our way..."
F#:---------------------|   x2
C#:---------------------|
G#:-----------0~~--0~~--|
C#:-0~~--2~~------------|


  "Now head towards the light, the dark has no place here..."
F#:------------------------------------------------|   x2
C#:-76-------------76-----------------7~-------7~--|
G#:---797-0-2-0~-----797-0-2-0~--0000-----0000-----|
C#:------------------------------------------------|


  " I don't feel real..."
F#:---------------------------------------------------|   x2
C#:---------------------------------------------------|
G#:-------------000000000000--------------------------|
C#:-444444444444------------222222222222444444444444--|


  "Nothing feels real anymore.."
F#:-------------------------|   x2
C#:-------------------------|
G#:------0000---------------|
C#:-4444------222222444444--|


  "Now head towards the light, the dark has no place here..."
F#:------------------------------------------------|   x2
C#:-76-------------76-----------------7~-------7~--|
G#:---797-0-2-0~-----797-0-2-0~--0000-----0000-----|
C#:------------------------------------------------|

F#:---------------------------------------------------|
C#:---------------------------------------------------|
G#:-------------000000000000--------------------------|
C#:-444444444444------------222222222222444444444444--|


  "Nothing feels real anymore.."
F#:-------------------------|   x2
C#:-------------------------|
G#:------0000---------------|
C#:-4444------222222444444--|

F#:---------------------------------------------------|   x2
C#:---------------------------------------------------|
G#:-------------000000000000--------------------------|
C#:-444444444444------------222222222222444444444444--|


  "The things we think about at night never lose taste..."
F#:--------------------------------------------------|
C#:--------------------------------------------------|
G#:-5-5-5-5-5-5-5-5-7-7-7-7-7-7-7-7-9-9-9-9-9-9-9-9--|
C#:--------------------------------------------------|

F#:------------------------------------------------------------|
C#:------------------------------------------------------------|
G#:-5-5-5-5-5-5-5-5-7-7-7-7-7-7-7-7----------------------------|
C#:---------------------------------4-4-4-4-4-4-4-4-2-2-2-2-2--|

F#:------------------------------------------------------------------|
C#:------------------------------------------------------------------|
G#:------------------------------------------------------------------|
C#:-0-0-0-0-0-0-0-0-2-2-2-2-2-2-2-2-4-4-4-4-4-4-4-4-4-4-4-4-4-4-4-4--|

F#:------------------------------------------------------------------|
C#:------------------------------------------------------------------|
G#:-5-5-5-5-5-5-5-5-7-7-7-7-7-7-7-7-9-9-9-9-9-9-9-9-9-9-9-9-9-9-9-9--|
C#:------------------------------------------------------------------|


  "Now head towards the light, the dark has no place here..."
F#:------|
C#:------|
G#:------|
C#:-0~~--

            
            
Suggest correction
Creating personal tab
Creating personal tab
You can edit any tab online and save it as your Personal.

You can edit, replace or remove any tab part or add personal notes – all changes will be seen only by you.

Personal tabs can be accessed anytime from any device, even offline.
Learn more »
Give kudos to tab author, rate the tab!
1 2 3 4 5
comments
print report bad tab
1 comment total.
0 reply
Antoniyo55 418 Oct 09, 2017 06:52 PM

Love this band, love this tab!

guest
You may want to rate the tab now too:
select rating
Wanna post a correction for this tab? Suggest correction