Oops, an error
Loading. Please wait.

Peter Gunn bass

version 1
version 1

Whole song

Interactive

4,947 views 1 this week
2 commentsread comments
1 2 3 4 5
x 4
add to favorites
×
Save as Personal and add changes to this tab that will be seen only by you. Learn more ›
×
You can save this tab as Personal to edit and correct it or add notes. All changes will be seen only by you. Learn more »
launch autoscroll
font size
0
reset
guitar tuner
edit
Autoscroll
slow
fast
+/-
esc
set tempo
stop
Complete song of peter gunn


|-----------------|
|-----------------|     repeat a good number of times
|-------------0---|
|-0-0-2-0-3-0---3-|

|-----------------|
|-----------------|     repeat 2
|-------------0---|
|-0-0-2-0-3-0---3-|

|-----------------|     
|-------------0---|     repeat 2
|-0-0-2-0-3-0---3-|
|-----------------|     

|-------------0---|     
|-0-0-2-0-3-0---3-|     repeat 2
|-----------------|  
|-----------------| 


|-----------------|
|-----------------|     repeat a good number of times
|-------------0---|
|-0-0-2-0-3-0---3-|

|-----------------|
|-----------------|     repeat 2
|-------------0---|
|-0-0-2-0-3-0---3-|

|-----------------|     
|-------------0---|     repeat 2
|-0-0-2-0-3-0---3-|
|-----------------|     

|-------------0---|     
|-0-0-2-0-3-0---3-|     repeat 2
|-----------------|  
|-----------------| 


for more information e-mail me at pommes__de__route@hotmail.com

            
            
Suggest correction
Creating personal tab
Creating personal tab
You can edit any tab online and save it as your Personal.

You can edit, replace or remove any tab part or add personal notes – all changes will be seen only by you.

Personal tabs can be accessed anytime from any device, even offline.
Learn more »
comments
print report bad tab
2 comments total.
0 reply
ghislain 110 Dec 10, 2004 07:00 PM

sorry dude, youre tab is'nt 100% correct. it should be
a -----------0----
e -0-0-2-0-3---3-0

or
e -0-0-2-0-3-5-3-0

0 reply
ghislain 110 Dec 10, 2004 07:00 PM

oops, sorry i jumped the gun to soon,
you're tab is correct, but is the part when u you switch to the
d-string correct?

guest
Wanna post a correction for this tab? Suggest correction