Oops, an error
Loading. Please wait.

The Sage tab

version 3
version 3

Whole song

Interactive

12,652 views 42 this week
1 commentread comment
1 2 3 4 5
2 more votes to show rating
add to favorites
×
Save as Personal and add changes to this tab that will be seen only by you. Learn more ›
×
You can save this tab as Personal to edit and correct it or add notes. All changes will be seen only by you. Learn more »
launch autoscroll
font size
0
reset
how to read this tab
guitar tuner
edit
Autoscroll
slow
fast
+/-
esc
set tempo
stop
Author
Difficulty
   The Sage, by Emerson, Lake and Palmer

  ,  .  ,  .  ,  .  ,  .     ,  .  ,  .  ,  .  ,  .
   |-------------0------------|-------------0------------|
   |----------0-----0---------|----------0-----0---------|
  4|*------5-----------5------|-------5-----------5------|
  4|*---2-----------------2---|----3-----------------3---|
   |-0------------------------|-0------------------------|
   |--------------------------|--------------------------|

     ,  .  ,  .  ,  .  ,  .     ,  .  ,  .  ,  .  ,  .
   |-------------0------------|------------<5>-----------|
   |----------0-----0---------|---------<5>--------------|
  4|-------5-----------5------|-------5------------------|
  4|----2-----------------2---|----3---------------------|
   |-0------------------------|-0------------------------|
   |--------------------------|--------------------------|

 ,  .  ,  .  ,  .  ,  .     ,  .  ,  .  ,  .  ,  .
   |-------------0------------|-------------0------------|
   |----------0-----0---------|----------0-----0---------|
  4|*------5-----------5------|-------5-----------5------|
  4|*---2-----------------2---|----3-----------------3---|
   |-0------------------------|-0------------------------|
   |--------------------------|--------------------------|

     ,  .  ,  .  ,  .  ,  .     ,  .  ,  .  ,  .  ,  .
   |-------------0------------|-------------5------------|
   |----------0-----0---------|----------5---------------|
  4|-------5-----------5------|-------5------------------|
  4|----2-----------------2---|----3---------------------|
   |-0------------------------|-0------------------------|
   |--------------------------|--------------------------|

     ,  .  ,  .  ,  .  ,  .     ,  .  ,  .  ,  .  ,  .
   |-------------0------------|-------------0------------|
   |----------0-----0---------|----------0-----0---------|
  4|-------5-----------5------|-------5-----------5------|
  4|----2-----------------2---|----3---------------------|
   |-0------------------------|-0------------------------|
   |--------------------------|--------------------------|

     ,  .  ,  .  ,  .  ,  .     ,  .  ,  .  ,  .  ,  .
   |-------------8--7----11/12|12------------------------|
   |----------7-------10--7/-9|-9------------------------|
  4|-------8------------------|--------------------------|
  4|----7---------------------|--------------------------|
   |--------------------------|--------------------------|
   |-0------------------------|--------------------------|


 ,  .  ,  .  ,  .  ,  .     ,  .  ,  .  ,  .  ,  .
   |----------0--1--0---------|----------0---------------|
   |-------3--------------1---|-------0-----0--------0---|
  4|----2---------------------|--------------------------|
  4|-0------------------------|----2--------------2------|
   |-------------------3------|--------------------------|
   |--------------------------|-4--------------4---------|

  ,  .  ,  .  ,  .  ,  .     ,  .  ,  .  ,  .  ,  .
   |--------------------------|-------------0------------|
   |----------0-----------0---|----------0---------------|
  4|-------5-----------5------|-------5------------------|
  4|----2-----------3---------|----2---------------------|
   |-0------------0-----------|-0------------------------|
   |--------------------------|--------------------------|

     ,  .  ,  .  ,  .  ,  .     ,  .  ,  .  ,  .  ,  .
   |----------0--1------------|-------------0------------|
   |-------3------------------|-------------0------------|
  4|----2---------------------|----------1---------------|
  4|-0------------------------|-------2------------------|
   |--------------------------|----2---------------------|
   |--------------------------|-0------------------------|

     ,  .  ,  .  ,  .  ,  .     ,  .  ,  .  ,  .  ,  .
   |----------1---------------|-------------0------------|
   |-------1-----1------------|----------0---------------|
  4|----4-----------4-----4---|-------5-----------------*|
  4|-3-----------------3------|----2--------------------*|
   |--------------------------|-0------------------------|
   |--------------------------|--------------------------|

,  .  ,  .  ,  .  ,  .     ,  .  ,  .  ,  .  ,  .
   |-------------0------------|-------------0------------|
   |----------0-----0---------|----------0-----0---------|
  4|*------5-----------5------|-------5-----------5------|
  4|*---2-----------------2---|----3-----------------3---|
   |-0------------------------|-0------------------------|
   |--------------------------|--------------------------|

     ,  .  ,  .  ,  .  ,  .     ,  .  ,  .  ,  .  ,  .
   |-------------0------------|-------------5------------|
   |----------0-----0---------|----------5---------------|
  4|-------5-----------5------|-------5------------------|
  4|----2-----------------2---|----3---------------------|
   |-0------------------------|-0------------------------|
   |--------------------------|--------------------------|

     ,  .  ,  .  ,  .  ,  .     ,  .  ,  .  ,  .  ,  .
   |-------------0------------|-------------0------------|
   |----------0-----0---------|----------0-----0---------|
  4|-------5-----------5------|-------5-----------5------|
  4|----2-----------------2---|----3---------------------|
   |-0------------------------|-0------------------------|
   |--------------------------|--------------------------|
     ,  .  ,  .  ,  .  ,  .     ,  .  ,  .  ,  .  ,  .
   |-------------8--7----11/12|12------------------------|
   |----------7-------10--7/-9|-9------------------------|
  4|-------8------------------|--------------------------|
  4|----7---------------------|--------------------------|
   |--------------------------|--------------------------|
   |-0------------------------|--------------------------|



 ,  .  ,  .  ,  .  ,  .     ,  .  ,  .  ,  .  ,  .
   |----------0--1--0---------|----------0---------------|
   |-------3--------------1---|-------0-----0--------0---|
  4|----2---------------------|--------------------------|
  4|-0------------------------|----2--------------2------|
   |-------------------3------|--------------------------|
   |--------------------------|-4--------------4---------|

  ,  .  ,  .  ,  .  ,  .     ,  .  ,  .  ,  .  ,  .
   |--------------------------|-------------0------------|
   |----------0-----------0---|----------0-----0---------|
  4|-------5-----------5------|-------5------------------|
  4|----2-----------3---------|----2---------------------|
   |-0------------0-----------|-0------------------------|
   |--------------------------|--------------------------|


     ,  .  ,  .  ,  .  ,  .     ,  .  ,  .  ,  .  ,  .
   |----------0--1------------|-------------0------------|
   |-------3------------------|-------------0------------|
  4|----2---------------------|----------1---------------|
  4|-0------------------------|-------2------------------|
   |--------------------------|----2---------------------|
   |--------------------------|-0------------------------|


     ,  .  ,  .  ,  .  ,  .     ,  .  ,  .  ,  .  ,  .
   |----------1---------------|-------------0------------|
   |-------1-----1------------|----------0---------------|
  4|----4-----------4-----4---|-------5-----------------*|
  4|-3-----------------3------|----2--------------------*|
   |--------------------------|-0------------------------|
   |--------------------------|--------------------------|

    %,   .   ,   .   ,   .      ,   .   ,   .   ,   .
   |-7-----------4---5h7------|-5------p4-------0--------|
   |-7-------7----------------|-5------------------------|
  3|-8------------------------|--------------------------|
  4|--------------------------|--------------------------|
   |-6------------------------|--------------------------|
   |--------------------------|-0------------------------|


 ,   .   ,   .   ,   .      ,   .   ,   .   ,   .
   |--------------------------|--------------------------|
   |-0-------0-------0--------|-0------------------------|
  3|11------12-------9--------|11------------------------|
  4|--------------------------|--------------------------|
   |--------------------------|--------------------------|
   |11------12-------9--------|11------------------------|

     ,   .   ,   .   ,   .      ,   .   ,   .   ,   .
   |-------0-------0-------0--|--------------------------|
   |----0-------0-------0-----|-------0-------0-------0--|
  3|--------------------------|----5-------5-------5-----|
  4|--------------------------|--------------------------|
   |--------------------------|-0-------0-------0--------|
   |-4-------4-------4--------|--------------------------|

   ,   .   ,   .   ,   .      ,   .   ,   .   ,   .
   |--------------------------|--------------------------|
   |-------3-------3-------3--|-0------------------------|
  3|----2-------2-------2-----|-0--------------<5>-------|
  4|--------------------------|--------------------------|
   |--------------------------|--------------------------|
   |-2-------2-------2--------|-3------------------------|

     ,   .   ,   .   ,   .      ,   .   ,   .   ,   .
   |-------0-------0-------0--|--------------------------|
   |----0-------0-------0-----|-------0-------0-------0--|
  3|--------------------------|----5-------5-------5-----|
  4|--------------------------|--------------------------|
   |--------------------------|-0-------0-------0--------|
   |-4-------4-------4--------|--------------------------|

     ,   .   ,   .   ,   .      ,   .   ,   .   ,   .
   |--------------------------|-0------------------------|
   |-------3-------3-------3--|-0------------------------|
  3|----2-------2-------2-----|-1------------------------|
  4|--------------------------|--------------------------|
   |--------------------------|--------------------------|
   |-2-------2-------2--------|-4------------------------|

     ,  .  ,  .  ,  .  ,  .     ,  .  ,  .  ,  .  ,  .  $
   |-4-----------7------------|-4-----0-----2------------|
   |-5-----------7------------|-5-----0-----2------------|
  4|-4-----------8------------|-4-----1-----2------------|
  4|--------------------------|--------------------------|
   |-4-----------6------------|-4-----------0------------|
   |--------------------------|-------4------------------|

     ,   .   ,   .   ,   .      ,   .   ,   .   ,   .
   |--------------------------|-----0--------------------|
   |-4------/5----------------|--------------------------|
  3|-2------------------------|---2----------------------|
  4|--------------------------|--------------------------|
   |-2------------------------|--------------------------|
   |--------------------------|-0------------------------|


 ,   .   ,   .   ,   .      ,   .   ,   .   ,   .
   |-----0--------------------|12------------------------|
   |--------------------------|---------9----------------|
  3|---1----------------------|--------------------------|
  4|--------------------------|11------------------------|
   |--------------------------|--------------------------|
   |-0------------------------|-----------------9--------|

     ,   .   ,   .   ,   .      ,   .   ,   .   ,   .
   |11------------------------|)9---------------2--------|
   |---------9----------------|(7---9---7-------2--------|
  3|--------------------------|)-------------------------|
  4|-9------------------------|(7------------------------|
   |--------------------------|-----------------1--------|
   |-----------------7--------|--------------------------|


  ,   .   ,   .   ,   .      ,   .   ,   .   ,   .
   |-2------------------------|12------------------------|
   |-5-------4h5p4------------|---------9----------------|
  3|--------------------------|--------------------------|
  4|--------------------------|11------------------------|
   |-2------------------------|--------------------------|
   |--------------------------|-----------------9--------|

     ,   .   ,   .   ,   .      ,   .   ,   .   ,   .
   |11------------------------|-9---------------2--p0----|
   |---------9----------------|-7---9---7-------2--------|
  3|--------------------------|--------------------------|
  4|-9------------------------|-7------------------------|
   |--------------------------|-----------------1--------|
   |-----------------7--------|--------------------------|

     ,   .   ,   .   ,   . Dal % al $ - $
   |-2------------------------|
   |-5-------4h5p4------------|
  3|--------------------------|
  4|--------------------------|
   |-2------------------------|
   |--------------------------|
    %,   .   ,   .   ,   .      ,   .   ,   .   ,   .
   |-7-----------4---5h7------|-5------p4-------0--------|
   |-7-------7----------------|-5------------------------|
  3|-8------------------------|--------------------------|
  4|--------------------------|--------------------------|
   |-6------------------------|--------------------------|
   |--------------------------|-0------------------------|


 ,   .   ,   .   ,   .      ,   .   ,   .   ,   .
   |--------------------------|--------------------------|
   |-0-------0-------0--------|-0------------------------|
  3|11------12-------9--------|11------------------------|
  4|--------------------------|--------------------------|
   |--------------------------|--------------------------|
   |11------12-------9--------|11------------------------|

     ,   .   ,   .   ,   .      ,   .   ,   .   ,   .
   |-------0-------0-------0--|--------------------------|
   |----0-------0-------0-----|-------0-------0-------0--|
  3|--------------------------|----5-------5-------5-----|
  4|--------------------------|--------------------------|
   |--------------------------|-0-------0-------0--------|
   |-4-------4-------4--------|--------------------------|



  ,   .   ,   .   ,   .      ,   .   ,   .   ,   .
   |--------------------------|--------------------------|
   |-------3-------3-------3--|-0------------------------|
  3|----2-------2-------2-----|-0--------------<5>-------|
  4|--------------------------|--------------------------|
   |--------------------------|--------------------------|
   |-2-------2-------2--------|-3------------------------|

     ,   .   ,   .   ,   .      ,   .   ,   .   ,   .
   |-------0-------0-------0--|--------------------------|
   |----0-------0-------0-----|-------0-------0-------0--|
  3|--------------------------|----5-------5-------5-----|
  4|--------------------------|--------------------------|
   |--------------------------|-0-------0-------0--------|
   |-4-------4-------4--------|--------------------------|

     ,   .   ,   .   ,   .      ,   .   ,   .   ,   .
   |--------------------------|-0------------------------|
   |-------3-------3-------3--|-0------------------------|
  3|----2-------2-------2-----|-1------------------------|
  4|--------------------------|--------------------------|
   |--------------------------|--------------------------|
   |-2-------2-------2--------|-4------------------------|

     ,  .  ,  .  ,  .  ,  .     ,  .  ,  .  ,  .  ,  .  $
   |-4-----------7------------|-4-----0-----2------------|
   |-5-----------7------------|-5-----0-----2------------|
  4|-4-----------8------------|-4-----1-----2------------|
  4|--------------------------|--------------------------|
   |-4-----------6------------|-4-----------0------------|
   |--------------------------|-------4------------------|

     ,   .   ,   .   ,   .      ,   .   ,   .   ,   .
   |--------------------------|
   |-4---4--------------------|
  3|-6---5--------------------|
  4|-4---6--------------------|
   |-4---6--------------------|
   |-----4--------------------|

    $,  .  ,  . /.         ,  .  ,  .  ,  .  ,  .  ,  .
   |------------------------------------8--7--7/12-------|
   |------------------------4--5--8--7-------------------|
  ?|-----------------------------------------------------|
  ?|-----------------------------------------------------|
   |-----------------------------------------------------|
   |-----------------------------------------------------|


,  .  ,  .  ,  .  ,  .     ,  .  ,  .  ,  .  ,  .
   |-0------------------------|-------0------------------|
   |-0------------------------|-------0-----7-----7--8---|
  4|-0------------------------|-0-----0-----8------------|
  4|-------------------2--4---|--------------------------|
   |----------------2---------|-------------6------------|
   |-0-----0--2--3------------|-------0------------------|

     ,  .  ,  .  ,  .  ,  .     ,  .  ,  .  ,  .  ,  .
   |-5--7--8--5--7-----7------|-7---------<12>----7------|
   |-------------------7------|-6----------<12>---6------|
  4|-------------------8------|-7-----------------7------|
  4|--------------------------|--------------------------|
   |-------------------6------|-5-----------------5------|
   |--------------------------|--------------------------|

     ,  .  ,  .  ,  .  ,  .     ,  .  ,  .  ,  .  ,  .
   |-7--5--------------5------|-5--3--------------3------|
   |-5-----------------5------|-5-----------------5------|
  4|--------------------------|--------------------------|
  4|--------------------------|--------------------------|
   |-4-----------------4------|--------------------------|
   |--------------------------|-0------------------------|


  ,  .  , /.      ,  .  ,  .  ,  .  ,  .  ,  .  ,  .
   |----------7-------3----------------------------------|
   |-8-------7-------------------------------------------|
  ?|-9------8------------4--5--2--4-----2----------------|
  ?|---------------------------------5-----4--5--2--4----|
   |---------------------------------------------------2-|
   |-7-----7---------------------------------------------|

     ,  .  ,  .  ,  .  ,  .     ,  .  ,  .  ,  .  ,  .
   |--------------------------|--------------------------|
   |-------------0------------|-------------0------------|
  4|----------0-----0---------|----------0-----0---------|
  4|-------4-----------4------|-------4-----------0------|
   |----2-----------------2---|----3-----------------3---|
   |-0------------------------|-0------------------------|

     ,  .  ,  .  ,  .  ,  .     ,  .  ,  .  ,  .  ,  .
   |--------------------------|-------------------0------|
   |-------------0------------|-------------0-------0----|
  4|----------0-----0---------|----------0-----------0---|
  4|-------4-----------4------|-------4---------------4--|
   |----4---------------------|----3-------------------3-|
   |-0------------------------|-0------------------------|

     ,  .  ,  .  ,  .  ,  .     ,  .  ,  .  ,  .  ,  .
   |-------------0------------|-------------0------------|
   |----------0-----0---------|----------0-----0---------|
  4|-------5-----------5------|-------5-----------5------|
  4|----2-----------------2---|----3-----------------3---|
   |-0------------------------|-0------------------------|
   |--------------------------|--------------------------|

     ,  .  ,  .  ,  .  ,  .     ,  .  ,  . ,  .  ,   .
   |-------------0------------|-----0--------------------|
   |----------0-----0---------|----0---------------------|
  4|-------5-----------5------|---5----------------------|
  4|----2-----------------2---|--3-----------------------|
   |-0------------------------|-0------------------------|
   |--------------------------|--------------------------|
     ,  .  ,  .  ,  .  ,  .     ,  .  ,  .  ,  .  ,  .
   |-------------0------------|-------------0------------|
   |----------0-----0---------|----------0-----0---------|
  4|*------5-----------5------|-------5-----------5------|
  4|*---2-----------------2---|----3-----------------3---|
   |-0------------------------|-0------------------------|
   |--------------------------|--------------------------|

     ,  .  ,  .  ,  .  ,  .     ,  .  ,  .  ,  .  ,  .
   |-------------0------------|------------<5>-----------|
   |----------0-----0---------|---------<5>--------------|
  4|-------5-----------5------|-------5------------------|
  4|----2-----------------2---|----3---------------------|
   |-0------------------------|-0------------------------|
   |--------------------------|--------------------------|

 ,  .  ,  .  ,  .  ,  .     ,  .  ,  .  ,  .  ,  .
   |-------------0------------|-------------0------------|
   |----------0-----0---------|----------0-----0---------|
  4|*------5-----------5------|-------5-----------5------|
  4|*---2-----------------2---|----3-----------------3---|
   |-0------------------------|-0------------------------|
   |--------------------------|--------------------------|

     ,  .  ,  .  ,  .  ,  .     ,  .  ,  .  ,  .  ,  .
   |-------------0------------|-------------5------------|
   |----------0-----0---------|----------5---------------|
  4|-------5-----------5------|-------5------------------|
  4|----2-----------------2---|----3---------------------|
   |-0------------------------|-0------------------------|
   |--------------------------|--------------------------|

     ,  .  ,  .  ,  .  ,  .     ,  .  ,  .  ,  .  ,  .
   |-------------0------------|-------------0------------|
   |----------0-----0---------|----------0-----0---------|
  4|-------5-----------5------|-------5-----------5------|
  4|----2-----------------2---|----3---------------------|
   |-0------------------------|-0------------------------|
   |--------------------------|--------------------------|

     ,  .  ,  .  ,  .  ,  .     ,  .  ,  .  ,  .  ,  .
   |-------------8--7----11/12|12------------------------|
   |----------7-------10--7/-9|-9------------------------|
  4|-------8------------------|--------------------------|
  4|----7---------------------|--------------------------|
   |--------------------------|--------------------------|
   |-0------------------------|--------------------------|
,  .  ,  .  ,  .  ,  .     ,  .  ,  .  ,  .  ,  .
   |----------0--1--0---------|----------0---------------|
   |-------3--------------1---|-------0-----0--------0---|
  4|----2---------------------|--------------------------|
  4|-0------------------------|----2--------------2------|
   |-------------------3------|--------------------------|
   |--------------------------|-4--------------4---------|

  ,  .  ,  .  ,  .  ,  .     ,  .  ,  .  ,  .  ,  .
   |--------------------------|-------------0------------|
   |----------0-----------0---|----------0---------------|
  4|-------5-----------5------|-------5------------------|
  4|----2-----------3---------|----2---------------------|
   |-0------------0-----------|-0------------------------|
   |--------------------------|--------------------------|

     ,  .  ,  .  ,  .  ,  .     ,  .  ,  .  ,  .  ,  .
   |----------0--1------------|-------------0------------|
   |-------3------------------|-------------0------------|
  4|----2---------------------|----------1---------------|
  4|-0------------------------|-------2------------------|
   |--------------------------|----2---------------------|
   |--------------------------|-0------------------------|

     ,  .  ,  .  ,  .  ,  .     ,  .  ,  .  ,  .  ,  .
   |----------1---------------|-------------0------------|
   |-------1-----1------------|----------0---------------|
  4|----4-----------4-----4---|-------5-----------------*|
  4|-3-----------------3------|----2--------------------*|
   |--------------------------|-0------------------------|
   |--------------------------|--------------------------|

            
            
Suggest correction
Creating personal tab
Creating personal tab
You can edit any tab online and save it as your Personal.

You can edit, replace or remove any tab part or add personal notes – all changes will be seen only by you.

Personal tabs can be accessed anytime from any device, even offline.
Learn more »
Give kudos to tab author, rate the tab!
1 2 3 4 5
comments
print report bad tab
1 comment total.
0 reply
I-Guitarz 62 Sep 29, 2009 04:16 PM

Leave your comments!

guest
You may want to rate the tab now too:
select rating
Wanna post a correction for this tab? Suggest correction