Oops, an error
Loading. Please wait.

Help Me tab

version 1
version 1

Whole song

Interactive

6,272 views 3 this week
5 commentsread comments
1 2 3 4 5
x 6
add to favorites
×
Save as Personal and add changes to this tab that will be seen only by you. Learn more ›
×
You can save this tab as Personal to edit and correct it or add notes. All changes will be seen only by you. Learn more »
launch autoscroll
font size
0
reset
how to read this tab
guitar tuner
edit
Autoscroll
slow
fast
+/-
esc
set tempo
stop
Drop C tuning ,

This song is really fun to play and easy to learn so enjoy!

Intro:

Guitar:

D|---------------------------------------------------------------------------|
A|-------10-8---------------8-----10--------10-8-------------8----10---------|
F|--7-7--------10-9-10---7-----7------7--7-------10-9-10--7----7------7------|
c|---------------------------------------------------------------------------|
G|---------------------------------------------------------------------------|
C|---------------------------------------------------------------------------|


synth:

play x 7                          play x 1
D|-----------------------------| |------------------------|
A|-----------------------------| |------------------------|
F|-----------------------------| |------------------------|
c|-------------------5-5-5-5-- | |---------------8-8-8--5-|
G|--5-8-5-5(x8)--8-8-----------| |--5-8-5-5(x8)-----------|
C|-----------------------------| |------------------------|



Verse:

D|----------------------------------------------------|
A|----------------------------------------------------|
F|---------7---------------------7--------------------|
c|------7------------8--5------7----------8--5--------|
G|---5---------5--8---------5-------5--8--------------|
C|----------------------------------------------------|


Pre Chorus:


Guitar 1:

D|---------------------------------------------------------------------------|
A|--------8b10r8-----------8---8b10r8-----8b10r8-----------------------------|
F|--7-7-----------10-9-10----7---------7----------10-9-----------------------|
c|---------------------------------------------------------------------------|
G|---------------------------------------------------------------------------|
C|---------------------------------------------------------------------------|


Guitar 2:

D|----------------------|
A|----------------------|
F|--------7-------------|
c|-----7-----------8----|
G|---5-------5--8-------|
C|----------------------|



Chorus:


Play x3

D|-----------------------------------|
A|-----------------------------------|
F|--7-7--7-7-7-7---------------------|
c|--7-7--7-7-7-7--3-3--8-10--8---0---|
G|--5-5--5-5-5-5--3-3--8-10--8---0---|
C|----------------3-3--8-10--8---0---|

play x 1

D|------------------------------|
A|------------------------------|
F|-7-7--7-7-7-7-----------------|
c|-7-7--7-7-7-7---3-3-----7-7---|
G|-5-5--5-5-5-5---3-3-----7-7---|
C|----------------3-3-----7-7---|



Bridge:

Guitar 1:

D|---------------------------------------------------------------------------|
A|---------------------------------------------------------------------------|
F|---------------------------------------------------------------------------|
c|--8-------8-7---0-------5-------3-------8------8-7--0-------5------7-------|
G|--8-------8-7---0-------5-------3-------8------8-7--0-------5------7-------|
C|--8(x6)---8-7---0(x8)---5(x8)---3(x8)---8(x6)--8-7--0(x8)---5(x8)--7(x8)---|


Guitar 2:

D|---------------------------------------------------------|
A|--3-5-6--8-8--6-6h8h10---3-5-6--8-8---5-6-5-6-5-6-5------|
F|-----------------------------------------------------7---|
c|---------------------------------------------------------|
G|---------------------------------------------------------|
C|---------------------------------------------------------|








            
            
Suggest correction
Creating personal tab
Creating personal tab
You can edit any tab online and save it as your Personal.

You can edit, replace or remove any tab part or add personal notes – all changes will be seen only by you.

Personal tabs can be accessed anytime from any device, even offline.
Learn more »
comments
print report bad tab
5 comments total. Showing first comments.
0 reply
boltstein 10 Dec 23, 2007 04:35 AM

from what i've played (the intro) it sounds spot on mate :) good work

0 reply
Engel1 234 Feb 19, 2008 07:11 AM

I don't think i've ever heard this song
before. I have the Cd but songs that i see
like blood and help me i've never heard.

0 reply
jeesjees 10 Mar 03, 2008 08:03 AM

Yeah coz this is on the LE CD

guest
You may want to rate the tab now too:
select rating
Wanna post a correction for this tab? Suggest correction