Oops, an error
Loading. Please wait.

Let Me Break tab

version 1
version 1

Whole song

Interactive

5,049 views 1 this week
3 commentsread comments
1 2 3 4 5
x 4
add to favorites
×
Save as Personal and add changes to this tab that will be seen only by you. Learn more ›
×
You can save this tab as Personal to edit and correct it or add notes. All changes will be seen only by you. Learn more »
launch autoscroll
font size
0
reset
how to read this tab
guitar tuner
edit
Autoscroll
slow
fast
+/-
esc
set tempo
stop
-------------------------------------------------------------------------------
                             Let Me Break - Emigrate
-------------------------------------------------------------------------------
Tabbed by: Bee-Ay
Email: Leviathan_ben@hotmail.com

Tuning: C-G-C-F-A-D


Intro: Guitar 1: Clean Guitar with slight reverb and very slight delay:

D|-----------------------------|----------------------------|
A|-----------------------------|----------------------------|
F|-*---7----8----5----7----5---|----7----8----5----7----5--*|
C|-*-5----5----7----7----7---7-|--5----5----7----7----7----*|
G|-----------------------------|----------------------------|
C|-----------------------------|----------------------------|


Guitar 2: Clean Semi-acoustic sound:
D|--------------------|
A|--------------------|
F|-*-----------------*|
C|-*-5--1--3--0--8-8-*|
G|---5--1--3--0--8-8--|
C|---5--1--3--0--8-8--|


Chorus: Hard distorted Guitars with slight Chorus effect:
D|-----------------|-----------------|-----------------|-------------------------------|
A|-----------------|-----------------|-----------------|-------------------------------|
F|-----------------|-----------------|-----------------|-------------------------------|
C|-5--1--3--0--8-8-|-5--1--3--0--8-8-|-5--1--3--0--8-8-|-5--1--0--12/13/12-12-12-12-12-|
G|-5--1--3--0--8-8-|-5--1--3--0--8-8-|-5--1--3--0--8-8-|-5--1--0--12/13/12-12-12-12-12-|
C|-5--1--3--0--8-8-|-5--1--3--0--8-8-|-5--1--3--0--8-8-|-5--1--0--12/13/12-12-12-12-12-|


Back to verse

2. Chorus:
D|-----------------|-----------------|-----------------|----------------------|
A|-----------------|-----------------|-----------------|----------------------|
F|-----------------|-----------------|-----------------|----------------------|
C|-5--1--3--0--8-8-|-5--1--3--0--8-8-|-5--1--3--0--8-8-|-5--1--0--12/13/12-12-|
G|-5--1--3--0--8-8-|-5--1--3--0--8-8-|-5--1--3--0--8-8-|-5--1--0--12/13/12-12-|
C|-5--1--3--0--8-8-|-5--1--3--0--8-8-|-5--1--3--0--8-8-|-5--1--0--12/13/12-12-|


Bridge: Hard distortion with a lot of Bass, Treple and a small Chorus effect.
Note: The bridge guitars are overdubbed perhaps 10-15 times in the studio to get that 
hard and tight sound.

D|-----------------------------------------------------------------|
A|-----------------------------------------------------------------|
F|*----------------------------------------------------------------|
C|*----------------------------------------------------------------|
G|-----------------------------------------------------------------|
C|--0-12-10---0-12-10---0-12-10---0-12-10---0-12-10-13~~---12-10---|


D|---------------------------------------|
A|---------------------------------------|
F|--------------------------------------*|
C|--------------------------------------*|
G|---------------------------------------|
C|-0-12-10---0-12-10---0-10-8---0-8-0-5--|

C-Part: Same sound setup as intro Guitar:

D|--10----8----10-10/11-|-10----8--------|
A|-----8----10----------|----8----10-----|
F|-*--------------------|------------10-*|
C|-*--------------------|---------------*|
G|----------------------|----------------|
C|----------------------|----------------|


Thats it! Now, where to add the different riffs around in the song, is up to you :)

            
            
Suggest correction
Creating personal tab
Creating personal tab
You can edit any tab online and save it as your Personal.

You can edit, replace or remove any tab part or add personal notes – all changes will be seen only by you.

Personal tabs can be accessed anytime from any device, even offline.
Learn more »
comments
print report bad tab
3 comments total.
0 reply
Fabsch 283 Feb 13, 2008 03:32 AM

Good Tab, but I´m not sure about this Part after the Chorus... I play:



C|---10-8-0---10-8-0---10-8-0---10-8-0---10-8-10/11~---|

C|---10-8-0---10-8-0---8-6-0---8-6-0-6-0-5-0---|

0 reply
Fabsch 283 May 19, 2008 04:16 AM

Damn

Sry for 2 Comments, but you're right... I've first played it on the G-String and so I was confused about it. (I thought G|5-3| would be C|10-8|)

Greets Fab

0 reply
Bee-Ay 1,433 May 19, 2008 06:21 AM

Its allright mate. :) Everything is fine.

guest
You may want to rate the tab now too:
select rating
Wanna post a correction for this tab? Suggest correction