Oops, an error
Loading. Please wait.

Temptation tab

version 1
version 1

Whole song

Interactive

4,855 views 6 this week
5 commentsread comments
1 2 3 4 5
x 4
add to favorites
×
Save as Personal and add changes to this tab that will be seen only by you. Learn more ›
×
You can save this tab as Personal to edit and correct it or add notes. All changes will be seen only by you. Learn more »
launch autoscroll
font size
0
reset
how to read this tab
guitar tuner
edit
Autoscroll
slow
fast
+/-
esc
set tempo
stop
Artist: Emigrate
Song: Temptation
Album: Emigrate / Temptation Single
Tabbed by: Rammkopf and me

Drop C

Intro: x2
(hard to hear the 0-7-0-0 bzw. 4-7-4-4)
D|---------------------------------------------------------------------| 
A|---------------------------------------------------------------------| 
F|---------------------------------------------------------------------| 
C|------7-----7----------7-----7----------7-----7----------7-----7-----| x2
G|----5---5------------5---5------------4---4------------4---4---------| 
C|--0-------0---0-0--0-------0---0-0--4-------4---4-4--4-------4---4-4-|

D|---------------------------------------------------------------------| 
A|---------------------------------------------------------------------| 
F|---------------------------------------------------------------------| 
C|------5-----5----------5-----5----------4-----4----------4-----4-----| x2
G|----5---5------------5---5------------4---4------------4---4---------| 
C|--5-------5---5-5--5-------5---5-5--4-------4---4-4--4-------4---4-4-|

Chorus:

D|------------------------------------------------------------------| 
A|------------------------------------------------------------------| 
F|------------------------------------------------------------------| 
C|--9-9-9-9-9-9-9-9-0-0-0-0-0-0-0-0-5-5-5-5-5-5-5-5-2-2-2-2-2-2-2-2-| 
G|--9-9-9-9-9-9-9-9-0-0-0-0-0-0-0-0-5-5-5-5-5-5-5-5-2-2-2-2-2-2-2-2-| 
C|--9-9-9-9-9-9-9-9-0-0-0-0-0-0-0-0-5-5-5-5-5-5-5-5-2-2-2-2-2-2-2-2-|

Solo:

   
D|----------|--------------------------------------------------------| 
A|--5b7r5---|-----5/10~-10-7/5-5----7--------------------------------| 
F|----------|--4~----------------------6~-----7~--7-9/7---6~---------| 
C|----------|--------------------------------------------------------| 
G|----------|--------------------------------------------------------| 
C|----------|--------------------------------------------------------|

Addings: 4. Time in the first one:

in the end---> F|---after the last 6---7~~~|

         4. Time in the second one:

in the end:

D|-------------------------------0---------|
A|-after the last 6~----4~-----------------|
F|-----------------------------------------|

Rythm in the Solo:

x1:

D|------------------------------------------------------------------------| 
A|------------------------------------------------------------------------| 
F|------------------------------------------------------------------------| 
C|-9-9-9-9-9-9-9-9-12-12-12-12-12-12-12-12-7-7-7-7-7-7-7-7-9-9-9-9-9-9-9-9| 
G|-9-9-9-9-9-9-9-9-12-12-12-12-12-12-12-12-7-7-7-7-7-7-7-7-9-9-9-9-9-9-9-9|
C|-9-9-9-9-9-9-9-9-12-12-12-12-12-12-12-12-7-7-7-7-7-7-7-7-9-9-9-9-9-9-9-9|

x3:

D|------------------------------------------------------------------------| 
A|------------------------------------------------------------------------| 
F|------------------------------------------------------------------------| 
C|-9-9-9-9-9-9-9-9-12-12-12-12-12-12-12-12-7-7-7-7-7-7-7-7-4-4-4-4-4-4-4-4| 
G|-9-9-9-9-9-9-9-9-12-12-12-12-12-12-12-12-7-7-7-7-7-7-7-7-4-4-4-4-4-4-4-4|
C|-9-9-9-9-9-9-9-9-12-12-12-12-12-12-12-12-7-7-7-7-7-7-7-7-4-4-4-4-4-4-4-4|

In the end of the Song:

D|----| 
A|----| 
F|----| 
C|-5~-| 
G|-5~-|
C|-5~-|

Last Verse: (very quiet with Wah-Wah)

D|------------------------------------------------------------------------| 
A|------------------------------------------------------------------------| 
F|------------------------------------------------------------------------| 
C|------------------------------------------------------------------------| 
G|------------------------------------------------------------------------|
C|-0-0-0-0-0-0-0-0-4-4-4-4-4-4-4-4-0-0-0-0-0-0-0-0-4-4-4-4-4-4-4-4--------|
   . . . . . . . . . . . . . . . . . . . . . . . . . . . . . . . . 

D|------------------------------------------------------------------------| 
A|------------------------------------------------------------------------| 
F|------------------------------------------------------------------------| 
C|------------------------------------------------------------------------| 
G|------------------------------------------------------------------------|
C|-5-5-5-5-5-5-5-5-4-4-4-4-4-4-4-4-5-5-5-5-5-5-5-5-4-4-4-4-4-4-4-4--------|
   . . . . . . . . . . . . . . . . . . . . . . . . . . . . . . . .

have fun ;)

            
            
Suggest correction
Creating personal tab
Creating personal tab
You can edit any tab online and save it as your Personal.

You can edit, replace or remove any tab part or add personal notes – all changes will be seen only by you.

Personal tabs can be accessed anytime from any device, even offline.
Learn more »
comments
print report bad tab
5 comments total. Showing first comments.
0 reply
Logan_B 10 Feb 22, 2008 07:37 AM

Wow.....Its good 5/5 but that solo....you layed it out really funny....you coulda had a separate bar to show what the different part of the solo is but its still good LOL

0 reply
Fabsch 283 Feb 22, 2008 11:41 AM

Yeah, but I did not want to do every solo of that three versions, so I put those "addings" under this "basic" solo

0 reply
Logan_B 10 Mar 09, 2008 09:04 AM

Okay well after i typed that i realised its still allright

guest
You may want to rate the tab now too:
select rating
Wanna post a correction for this tab? Suggest correction