Oops, an error
Loading. Please wait.

Big Big World tab

version 4
version 4

Whole song

by Emilia
4,006 views 9 this week
no commentswrite comment
1 2 3 4 5
3 more votes to show rating
add to favorites
×
Save as Personal and add changes to this tab that will be seen only by you. Learn more ›
×
You can save this tab as Personal to edit and correct it or add notes. All changes will be seen only by you. Learn more »
launch autoscroll
font size
0
reset
how to read this tab
guitar tuner
edit
Autoscroll
slow
fast
+/-
esc
set tempo
stop
Author
Emilia - Big Big World


1) Notes about the song itself.

    - The song is written in the time signature: 4/4.


2) Guide to this tab
    - The notes are placed below the tabs. (NOT the chords, although
     it's possible to play the corresponding chords.)
    - "--" = eight note    "----" = quarter note  "--------" = half note
    - The lines tabbed here, are the melody.
    - The letters above the staff are marking all different parts of the song, at the bottom
      is a list in what order you need to play the parts.
    - A ~ after the note below the staff, lengthens it's duration with 1/2 of it's normal length.


3) Tablature

  a      b
| -------:--------------------------------------------------------------------|       E
| -------:--------------------------------------------------------------------|       B
|--------:--------------------------------------------------------------------|       G
|------0-:--2----2----2----2--3--0----0----0----0--2--------------------------|        D
|--3-----:--------------------------------------------------------------------|        A
|---------:-------------------------------------------------------------------|       E
   CD   :  E~    E~   E~     E  F  D    D     D   D   E

|---------------------------------------------------------------------------------------|
|---------------------------------------------------------------------------------------|
|---------------------------------------------------------------------------------------|
|----------------------0--2--------0-------0--2----2----2----2--3--0----0----0----0--2--|
|--3----3----3----3--------------------3------------------------------------------------|
|---------------------------------------------------------------------------------------|
  C~   C~  C~  CD  E            D    C D   E~   E~   E~   E    F D~ D~  D~  D   E


|-----------------------------------------------|
|-----------------------------------------------|
|-----------------------------------------------|
|------------2--0----2----2---2-----------------|
|---1-------------------------------------------|
|-----------------------------------------------|
    C         E   D   E    E     E


|---------------------------------------------------------------------|
|---------------------------------------------------------------------|
|---------------------------------------------------------------------|
|--0----2----0---------------------2--0-----0-----0--0----------------|
|----------------3--2----3----3----------3-----3-----------3----------|
|---------------------------------------------------------------------|
 D      E    D  C  B    C     C    E   D  C D C D   D    C

                                                                c
|---------------------------------------------:------------------------|
|---------------------------------------------:------------------------|
|---------------------------------------------:------------------------|
|--0-------0--0---------2--0-----0-----0--:----------------------------|
|-------3-----------3----------3-----3------:3-------------------------|
|---------------------------------------------:------------------------|
   D    C D   D    C    E   DC  DC  D     C

a x 1
b x 3
c x 1


4) Notes

I used sheet music for this and transfered it to tabs.
Please contact me on: fruity_life@live.be for:

- Corrections and comments
- If you see this published anywhere else than:
  www.sensivitation.tk
  www.worldguitarpage.tk
  www.ultimate-guitar.com
- Social contact!

5) Tabbed on: 28/11/2008 by Jelle Stans.

            
            
Suggest correction
Creating personal tab
Creating personal tab
You can edit any tab online and save it as your Personal.

You can edit, replace or remove any tab part or add personal notes – all changes will be seen only by you.

Personal tabs can be accessed anytime from any device, even offline.
Learn more »
Give kudos to tab author, rate the tab!
1 2 3 4 5
comments
print report bad tab
guest
You may want to rate the tab now too:
select rating
Wanna post a correction for this tab? Suggest correction