Oops, an error
Loading. Please wait.

Say Goodbye Hollywood intro tab

version 1
version 1

Intro

Whole song

by Eminem
1,057 views 1 this week
1 commentread comment
1 2 3 4 5
3 more votes to show rating
add to favorites
×
Save as Personal and add changes to this tab that will be seen only by you. Learn more ›
×
You can save this tab as Personal to edit and correct it or add notes. All changes will be seen only by you. Learn more »
launch autoscroll
font size
0
reset
how to read this tab
guitar tuner
edit
Autoscroll
slow
fast
+/-
esc
set tempo
stop

E---------------------------------------------------------
A--0--7--7--5--7--8--5--7--7--5--7--8--5--7--5--7--5--3--0
D---------------------------------------------------------
G---------------------------------------------------------
B---------------------------------------------------------
E---------------------------------------------------------


E--3---------------------------------------------------------
A----0--7--7--5--7--8--5--7--12--5--7--5--7--7--5--7--5--3--0
D------------------------------------------------------------
G------------------------------------------------------------
B------------------------------------------------------------
E------------------------------------------------------------

            
            
Suggest correction
Creating personal tab
Creating personal tab
You can edit any tab online and save it as your Personal.

You can edit, replace or remove any tab part or add personal notes – all changes will be seen only by you.

Personal tabs can be accessed anytime from any device, even offline.
Learn more »
Give kudos to tab author, rate the tab!
1 2 3 4 5
comments
print report bad tab
1 comment total.
0 reply
yamum97 0 Oct 21, 2002 08:00 PM

E---------------------------------------------------------
A--0--7--7--5--7--8--5--7--7--5--7--8--5--7--5--7--5--3--2
D---------------------------------------------------------
G---------------------------------------------------------
B---------------------------------------------------------
E---------------------------------------------------------


E--3---------------------------------------------------------
A----0--7--7--5--7--8--5--7--12--5--7--5--7--7--5--7--5--3--2
D------------------------------------------------------------
G------------------------------------------------------------
B------------------------------------------------------------
E------------------------------------------------------------

guest
Wanna post a correction for this tab? Suggest correction