Oops, an error
Loading. Please wait.

Run tab

version 1
version 1

Whole song

3,180 views 1 this week
5 commentsread comments
1 2 3 4 5
x 3
add to favorites
×
Save as Personal and add changes to this tab that will be seen only by you. Learn more ›
×
You can save this tab as Personal to edit and correct it or add notes. All changes will be seen only by you. Learn more »
launch autoscroll
font size
0
reset
how to read this tab
guitar tuner
edit
Autoscroll
slow
fast
+/-
esc
set tempo
stop
Author
Difficulty
-------------------------------------------------------------------------------
                             RUN- EMMA BALE
-------------------------------------------------------------------------------
Tabbed by: DS
E-mail: nigel.gman182@gmail.com

Tuning: standard

i've been searching for this tab for while and i 
couldn't find it so i thought i'll try to figure it out myself.
this is my first tab.
it sounds pretty accurate.
leave a comment if you think i made  mistake




e|---------------------------------------------------|
B|---------------------------------------------------|
G|---------------------------------------------------|
D|------6-----6-----6-----6-----6-----6-----6-----6--|
A|---4-----4-----4-----4-----------------------------|
E|---------------------------5-----5-----5-----5-----|

e|---------------------------------------------------|
B|---------------------------------------------------|
G|---------------------------------------------------|
D|------6-----6-----6-----6-----6-----4--------------|
A|------------------------------------------6-----7--|
E|---0-----0-----0-----0-----0-----0----(0)---(0)----|

e|---------------------------------------------------|
B|---------------------------------------------------|
G|---------------------------------------------------|
D|------6-----6-----6-----6-----6-----6-----6-----6--| 
A|---4-----4-----4-----4-----0-----0-----0-----0-----|
E|---------------------------------------------------|

e|---------------------------------------------------|
B|---------------------------------------------------|
G|---------------------------------------------------|
D|------6-----6-----6-----6-----6-----4--------------|
A|------------------------------------------6-----7--|
E|---0-----0-----0-----0-----0-----0----(0)---(0)----|



CAN BE USED THROUGHOUT THE WHOLE SONG

preferbly : C#m , A and E  for the pre-chorus

            
            
Suggest correction
Creating personal tab
Creating personal tab
You can edit any tab online and save it as your Personal.

You can edit, replace or remove any tab part or add personal notes – all changes will be seen only by you.

Personal tabs can be accessed anytime from any device, even offline.
Learn more »
Give kudos to tab author, rate the tab!
1 2 3 4 5
comments
print report bad tab
5 comments total. Showing first comments.
0 reply
lolobartels 10 Aug 24, 2015 07:09 AM

The second verse Needs to play different : if i play the 0 On th a string iTs not the same tone as in the song, the 0 On the a string sounds almost the same as the 5 On the E string , so plz correct it becouse i cant hahah

+1 reply
ieneberckmans 10 Sep 29, 2015 10:34 AM

Sounds just like it! Great tab keep it up!

0 reply
shots3000 10 Oct 24, 2015 12:59 AM

Sounds more like the song when it's dropped down one note - the E string has to become an E# but the rest of the strings can stay the same.
Good first effort though

guest
You may want to rate the tab now too:
select rating
Wanna post a correction for this tab? Suggest correction