Oops, an error
Loading. Please wait.

What Took You So Long tab

version 1
version 1

Whole song

1,214 views 1 this week
no commentswrite comment
1 2 3 4 5
1 last vote to show rating
add to favorites
×
Save as Personal and add changes to this tab that will be seen only by you. Learn more ›
×
You can save this tab as Personal to edit and correct it or add notes. All changes will be seen only by you. Learn more »
launch autoscroll
font size
0
reset
how to read this tab
guitar tuner
edit
Autoscroll
slow
fast
+/-
esc
set tempo
stop
What took you so long?
Intro:     Fmaj7     Am    G    
               Fmaj7       Am            G
Verse 1:Ohohoh talk to me, Cant you see, I'll help you work things out
                    Fmaj7               Am           G
             Ohohoh dont wanna be, your enemy, and I dont wanna scream and shout

                    Dm9          Fmaj7       Am               G        
Bridge: 'Cause baby I believe in honesty, is never strong and true
               Dm9              Fmaj7             Am           G     
             I shouldnt have to say now baby that I believe in you
                                Dm9
Chorous:       What took you so long?
                                 Am
               What took you all night?
                             G
               What took you forever to see i'm right?
                                      Dm9
               And now I treet you so good
                                  Am
               I'll make you feel fine      
                             G
               You know I'll never give it up this time

                         Fmaj7  Am   G--------- let ring
                no no no    
                 Fmaj7                   Am                  G
Verse 2:Ohoh you touched my heart, right from the start, you didnt know what to say 
                 Fmaj7                  Am            G
        But baby I understand, when you take my hand, every things ok
                     Dm9       Fmaj7       Am        G
Bridge 2:'Cause baby I believe reality, is never far away
              Dm9           Fmaj7        Am                    G       
         I've had enough so listen baby, I've got something to say
                          
Chorous x2
Middle: same as bridge
Bridge 1 Chorous x2  Outro:Dm9     Fmaj7    Am    G

Intro.
e|------------------------------------------------------------
b|------------------------------------------------------------
g|------------------------------------------------------------
d|------------------0-----------------------------------------
a|-2h3p2---0------3---3-0-2-3/5-------------------------------
E|-------3----------------------------------------------------

Bridge & middle
e|-------3--------------3--------------3-------------3---------------
b|-----1---1----------1---1----------1---1---------0-----------------
g|---2-------2------2-------2------2-------2-----0-------------------
d|-3-----------3--0-----------0--2-----------2-3---------------------
a|-------------------------------------------------------------------
E|-------------------------------------------------------------------


            
            
Suggest correction
Creating personal tab
Creating personal tab
You can edit any tab online and save it as your Personal.

You can edit, replace or remove any tab part or add personal notes – all changes will be seen only by you.

Personal tabs can be accessed anytime from any device, even offline.
Learn more »
Give kudos to tab author, rate the tab!
1 2 3 4 5
comments
print report bad tab
guest
Wanna post a correction for this tab? Suggest correction